Oops, an error
Loading. Please wait.

Wherever You Will Go Live Tab

4,181 views 3 this week
no commentswrite comment
1 2 3 4 5
excellent!
x 3
add to favorites
launch autoscroll
font size
0
reset
how to read this tab
guitar tuner
Tab Pro tools
  • play this tab
  • loop segment
  • change instrument
  • show fretboard
  • metronome
Autoscroll
slow
fast
+/-
esc
set tempo
stop
Contributor
Difficulty
intermediate
I've gone over this song like a billion times and this one has the mistakes corrected
the other tabs. Even the most popular "Wherever You Will Go" on here is wrong. So I
to stay up all night to show you peeps the correct way. I might have made a few typing 
if so just let me know. Thanks =] Please leave comments and let me know what you think of
=]]

Watch the way The Calling really plays it.
http://www.youtube.com/watch?v=8JeuKf-J9Qo&feature=related

Note: Capo 2 fret. STANDARD TUNING
Tips: When plucking just try up and down, but both ways sound good. Also, on the 'F' I
it easier to use my thumb for the low E string on the first fret. Last, When strumming
build up notes like in the bridge and right before the chorus, palm muting and then 
go sounds best.


INTRO:

          C                 G                Am7               F
E|-----------------|-----------------|-----------------|------------------|
B|-----------1-----|-----------1-----|-----------1-----|----1------1---1--|
G|-----0---0---0---|-----0---0---0---|-----0---0---0---|---0-0-----0---0--|
D|---2---2-------2-|---0---0-------0-|---2---2-------2-|------------------|
A|-3---------------|-2---------------|-0---------------|------------------|
E|-----------------|-----------------|-----------------|-1-------1---3----|


VERSE 1: PLAY 3x

          C                 G                Am7               F
E|-----------------|-----------------|-----------------|------------------|
B|-----------1-----|-----------1-----|-----------1-----|----1------1---1--|
G|-----0---0---0---|-----0---0---0---|-----0---0---0---|---0-0-----0---0--|
D|---2---2-------2-|---0---0-------0-|---2---2-------2-|------------------|
A|-3---------------|-2---------------|-0---------------|------------------|
E|-----------------|-----------------|-----------------|-1-------1---3----|


PRE-CHORUS:

          C                 G                Am7                F
E|-----------------|-----------------|-----------------|--0-0-0-0-0-0-0-0--|
B|-----------1-----|-----------1-----|-----------1-----|--1-1-1-1-1-1-1-1--|
G|-----0---0---0---|-----0---0---0---|-----0---0---0---|--2-2-2-2-2-2-2-2--|
D|---2---2-------2-|---0---0-------0-|---2---2-------2-|--3-3-3-3-3-3-3-3--|
A|-3---------------|-2---------------|-0---------------|--0-0-0-0-0-0-0-0--|
E|-----------------|-----------------|-----------------|--x-x-x-x-x-x-x-x--|
                                                          ^^^^^^^^^^^^^^^
                                                            Strum Down


CHORUS:


       C           G           Am          F
E|-----0-----|-----0-----|-----0-----|-----0-----|
B|-----1-----|-----3-----|-----1-----|-----1-----|
G|-----0-----|-----0-----|-----2-----|-----2-----|  Repeat
D|-----2-----|-----0-----|-----2-----|-----3-----|    2x
A|-----3-----|-----2-----|-----0-----|-----0-----|
E|-----x-----|-----x-----|-----x-----|-----1-----|


VERSE 2: PLAY 2x

          C                 G               Am7                 F
E|-----------------|-----------------|-----------------|------------------|
B|-----------1-----|-----------1-----|-----------1-----|----1------1---1--|
G|-----0---0---0---|-----0---0---0---|-----0---0---0---|---0-0-----0---0--|
D|---2---2-------2-|---0---0-------0-|---2---2-------2-|------------------|
A|-3---------------|-2---------------|-0---------------|------------------|
E|-----------------|-----------------|-----------------|-1-------1---3----|


PRE-CHORUS:

       C           G          Am7          F
E|-----0-----|-----0-----|-----0-----|-----0-----|
B|-----1-----|-----1-----|-----1-----|-----1-----|
G|-----0-----|-----0-----|-----0-----|-----0-----|
D|-----2-----|-----0-----|-----2-----|-----0-----|
A|-----3-----|-----2-----|-----0-----|-----0-----|
E|-----x-----|-----x-----|-----x-----|-----1-----|


       C           G          Am7          F
E|-----0-----|-----0-----|-----0-----|--0-0-0-0--|
B|-----1-----|-----1-----|-----1-----|--1-1-1-1--|
G|-----0-----|-----0-----|-----0-----|--2-2-2-2--|
D|-----2-----|-----0-----|-----2-----|--3-3-3-3--|
A|-----3-----|-----2-----|-----0-----|--0-0-0-0--|
E|-----x-----|-----x-----|-----x-----|--x-x-x-x--|
                                        ^^^^^^^
                                       Strum Down

CHORUS:

       C           G          Am           F
E|-----0-----|-----0-----|-----0-----|-----0-----|
B|-----1-----|-----3-----|-----1-----|-----1-----|
G|-----0-----|-----0-----|-----2-----|-----2-----|  Repeat
D|-----2-----|-----0-----|-----2-----|-----3-----|    2x
A|-----3-----|-----2-----|-----0-----|-----0-----|
E|-----x-----|-----x-----|-----x-----|-----1-----|


BRIDGE:

       Am          F           G           Em         Am
E|-----0-----|-----0-----|-----3-----|-----0-----|-----0-----|
B|-----1-----|-----1-----|-----3-----|-----0-----|-----1-----|
G|-----2-----|-----2-----|-----0-----|-----0-----|-----2-----|
D|-----2-----|-----3-----|-----0-----|-----2-----|-----2-----|
A|-----0-----|-----0-----|-----2-----|-----2-----|-----0-----|
E|-----x-----|-----1-----|-----3-----|-----0-----|-----x-----|

       F           G             Em
E|-----0-----|-----3-----|-----------------|
B|-----1-----|-----3-----|-----------------|
G|-----2-----|-----0-----|-----------------|
D|-----3-----|-----0-----|-2-2-2-2-2-2-2-2-|
A|-----0-----|-----2-----|-2-2-2-2-2-2-2-2-|
E|-----1-----|-----3-----|-0-0-0-0-0-0-0-0-|
                           ^^^^^^^^^^^^^^^
                             Strum Down


VERSE 3:

          C                 G                Am7               F
E|-----------------|-----------------|-----------------|------------------|
B|-----------1-----|-----------1-----|-----------1-----|----1------1---1--|
G|-----0---0---0---|-----0---0---0---|-----0---0---0---|---0-0-----0---0--|
D|---2---2-------2-|---0---0-------0-|---2---2-------2-|------------------|
A|-3---------------|-2---------------|-0---------------|------------------|
E|-----------------|-----------------|-----------------|-1-------1---3----|

         C                 G                Am7                 F
E|-----------------|-----------------|-----------------|--0-0-0-0-0-0-0-0--|
B|-----------1-----|-----------1-----|-----------1-----|--1-1-1-1-1-1-1-1--|
G|-----0---0---0---|-----0---0---0---|-----0---0---0---|--2-2-2-2-2-2-2-2--|
D|---2---2-------2-|---0---0-------0-|---2---2-------2-|--3-3-3-3-3-3-3-3--|
A|-3---------------|-2---------------|-0---------------|--0-0-0-0-0-0-0-0--|
E|-----------------|-----------------|-----------------|--x-x-x-x-x-x-x-x--|
                                                          ^^^^^^^^^^^^^^^
                                                            Strum Down


LAST CHORUS: 3x

       C           G          Am          F
E|-----0-----|-----0-----|-----0-----|-----0-----|
B|-----1-----|-----3-----|-----1-----|-----1-----|
G|-----0-----|-----0-----|-----2-----|-----2-----|
D|-----2-----|-----0-----|-----2-----|-----3-----|
A|-----3-----|-----2-----|-----0-----|-----0-----|
E|-----x-----|-----x-----|-----x-----|-----1-----|

       C           G          Am           F
E|-----0-----|-----0-----|-----0-----|--0-0-0-0--|
B|-----1-----|-----3-----|-----1-----|--1-1-1-1--|
G|-----0-----|-----0-----|-----2-----|--2-2-2-2--|
D|-----2-----|-----0-----|-----2-----|--3-3-3-3--|
A|-----3-----|-----2-----|-----0-----|--0-0-0-0--|
E|-----x-----|-----x-----|-----x-----|--x-x-x-x--|
                                        ^^^^^^^
                                       Strum Down

       C           G          Am           F
E|-----0-----|-----3-----|-----0-----|-----0-----|
B|-----1-----|-----3-----|-----1-----|-----1-----|
G|-----0-----|-----0-----|-----2-----|-----2-----|
D|-----2-----|-----0-----|-----2-----|-----3-----|
A|-----3-----|-----2-----|-----0-----|-----0-----|
E|-----x-----|-----3-----|-----x-----|-----1-----|


       C           G          Am             F
E|-----0-----|-----3-----|-----0-----|---0-x-0-x-0----|
B|-----1-----|-----3-----|-----1-----|---1-x-1-x-1----|
G|-----0-----|-----0-----|-----2-----|---2-x-2-x-2----|
D|-----2-----|-----0-----|-----2-----|---3-x-3-x-3----|
A|-----3-----|-----2-----|-----0-----|---0-x-0-x-0----|
E|-----x-----|-----3-----|-----x-----|---x-x-x-x-x----|
                                         ^^^^^^^^^^
                                         Strum Down
comments
We did not receive enough feedback on this tab! Please rate:
print report bad tab
1 2 3 4 5
I want to post or [tab]
guest
You may want to rate the tab now too:
select rating
Please do not post tabs as comments. Select "correction" instead!