Oops, an error
Loading. Please wait.

Wherever You Will Go Tab

version 5
version 5
11,347 views 9 this week
2 commentsread comments
1 2 3 4 5
worth learning
x 1
add to favorites
launch autoscroll
font size
0
reset
how to read this tab
guitar tuner
Tab Pro tools
  • play this tab
  • loop segment
  • change instrument
  • show fretboard
  • metronome
Autoscroll
slow
fast
+/-
esc
set tempo
stop
Contributor
Wherever you will go                                    4/18/03


tabbed by: string_liznerz                         
Email: stringlizner@aol.com
Put Capo in 2nd Fret

Intro:

e|---------------------------------------------------------------|
B|----------1---------------1---------------1--------1---1---1---|
G|----0---0---0-------0---0---0-------0---0---0-----0---0--------|
D|--2---2-------2---2---2-------2---2---2-------2----------------|
A|3---------------2---------------0------------------------------|
E|------------------------------------------------1---1---1------|

Verse:

Guitar 1
e|---------------------------------------------------------------|
B|----------1---------------1---------------1--------1---1---1---|
G|----0---0---0-------0---0---0-------0---0---0-----0---0--------|
D|--2---2-------2---2---2-------2---2---2-------2----------------|
A|3---------------2---------------0------------------------------|
E|------------------------------------------------1---1---1------|

Guitar 2

e|-3--------------|
B|------3----1----|
G|----------------|
D|----------------|
A|----------------|
E|----------------|

e|-3----------------------------------3-------------------------|
B|-3------------3---------3---------3---3-----------------------|
G|-5----------5---5-----5---5-----5-----------------------------|
D|-5--------5---------5---------3-------------------------------|
A|-3------5---------0-------------------------------------------|
E|-3------------------------------------------------------------|

e|-3--------------|
B|------3----1----|
G|----------------|
D|----------------|
A|----------------|
E|----------------|

Chorus:

e|3--3-3--33--3-|-3--3-3--33--3-|-0--0-0--00--0-|-1--1-1--11--1--|
B|3--3-3--33--3-|-3--3-3--33--3-|-1--1-1--11--1-|-1--1-1--11--1--|
G|5--5-5--55--5-|-4--4-4--44--4-|-2--2-2--22--2-|-2--2-2--22--2--|
D|5--5-5--55--5-|-5--5-5--55--5-|-2--2-2--22--2-|-3--3-3--33--3--|
A|3--3-3--33--3-|-5--5-5--55--5-|-0--0-0--00--0-|-3--3-3--33--3--|
E|3--3-3--33--3-|-3--3-3--33--5-|-0--0-0--00--0-|-1--1-1--11--1--|



Bridge:

e|-0-00--0--|-1-11--1--|-3-33--3--|-0-00--0--|--------------------|
B|-1-11--1--|-1-11--1--|-3-33--3--|-0-00--0--|--------------------|
G|-2-22--2--|-2-22--2--|-2-22--2--|-0-00--0--|--------------------|
D|-2-22--2--|-3-33--3--|-5-55--5--|-2-22--2--|--------------------|
A|-0-00--0--|-3-33--3--|-5-55--5--|-2-22--2--|--------------------|
E|----------|-1-11--1--|-3-33--3--|-0-00--0--|--------------------|

e|-0-00--0--|-1-11--1--|-3-33--3--|-0-00--0--|--------------------|
B|-1-11--1--|-1-11--1--|-3-33--3--|-0-00--0--|--------------------|
G|-2-22--2--|-2-22--2--|-2-22--2--|-0-00--0--|--------------------|
D|-2-22--2--|-3-33--3--|-5-55--5--|-2-22--2--|--------------------|
A|-0-00--0--|-3-33--3--|-5-55--5--|-2-22--2--|--------------------|
E|----------|-1-11--1--|-3-33--3--|-0-00--0--|--------------------|

Last Verse:

e|3--3-3--33--3-|-3--3-3--33--3-|-0--0-0--00--0-|-1--1-1--11--1---|
B|3--3-3--33--3-|-3--3-3--33--3-|-1--1-1--11--1-|-1--1-1--11--1---|
G|5--5-5--55--5-|-4--4-4--44--4-|-2--2-2--22--2-|-2--2-2--22--2---|
D|5--5-5--55--5-|-5--5-5--55--5-|-2--2-2--22--2-|-3--3-3--33--3---|
A|3--3-3--33--3-|-5--5-5--55--5-|-0--0-0--00--0-|-3--3-3--33--3---|
E|3--3-3--33--3-|-3--3-3--33--5-|-0--0-0--00--0-|-1--1-1--11--1---|

Guitar 2

e|15-15-15-15-15-15-15-15-----------------------------------------|
B|-----------------------15-15-15-15-15-15-15 15-13-13-13-13-13-13|
G|----------------------------------------------------------------|
D|----------------------------------------------------------------|
A|----------------------------------------------------------------|
E|----------------------------------------------------------------|

Ending:

e|-------------|
B|-------------|
G|--2---2---2--|
D|--3---2---3--|
A|--3---3---3--|
E|--1---1---1--|        

SONG PATTERN

INTRO
VERSE
CHORUS
VERSE
CHORUS
BRIDGE
VERSE
CHORUS
CHORUS
comments
We did not receive enough feedback on this tab! Please rate:
print report bad tab
1 2 3 4 5
2 comments total.
0 reply
Leggity Jones wrote on February 4 2004, 12:00 am

close, its not quite right but its a good attempt.

0 reply
Leggity Jones wrote on February 4 2004, 12:00 am

close, its not quite right but its a good attempt.

I want to post or [tab]
guest
You may want to rate the tab now too:
select rating
Please do not post tabs as comments. Select "correction" instead!