Oops, an error
Loading. Please wait.

Wherever You Will Go Tab

version 7
version 7
32,845 views 1 this week
no commentswrite comment
1 2 3 4 5
accurate
x 5
add to favorites
launch autoscroll
font size
0
reset
how to read this tab
guitar tuner
Tab Pro tools
  • play this tab
  • loop segment
  • change instrument
  • show fretboard
  • metronome
×
Best way to learn
"Wherever You Will Go"
Autoscroll
slow
fast
+/-
esc
set tempo
stop
Contributor
Difficulty
Capo
intermediate
2nd fret
Tunning: E B G D A E.
Note: Capo on the 2nd fret.

Intro:
    C                 G4/B
E|-------------------------------------|
B|------------3-----------------3------|
G|------2---2---2---------2---2---2----|
D|----4---4-------0-----2---2-------2--|
A|--5-----------------4----------------|
E|-------------------------------------|

   Am7               F6(9)        
E|-------------------------------------|
B|------------3----------3-----3----3--|
G|------2---2---2----------2---2----2--|
D|----4---4-------4----2-------2----2--|
A|--2----------------------------------|
E|-------------------3-------3----3----|


Verse 1:
E|-------------------------------------|
B|------------3-----------------3------|
G|------2---2---2---------2---2---2----|       -|
D|----4---4-------0-----2---2-------2--|        |
A|--5-----------------4----------------|        |
E|-------------------------------------|        |
                                                | - 3X
   Am7               F6(9)                      |
E|-------------------------------------|        |
B|------------3----------3-----3----3--|        |
G|------2---2---2----------2---2----2--|       -|
D|----4---4-------4----2-------2----2--|
A|--2----------------------------------|
E|-------------------3-------3----3----|


And:
E|-------------------------------------|
B|------------3-----------------3------|
G|------2---2---2---------2---2---2----| 
D|----4---4-------0-----2---2-------2--|  
A|--5-----------------4----------------|
E|-------------------------------------|
                                         
   Am7               F6(9)     
E|----------------------------------------------|
B|------------3----------3----------------------|
G|------2---2---2----------2--------------------|
D|----4---4-------4----2--------3-3-3-3-3-3-3-3-|
A|--2---------------------------3-3-3-3-3-3-3-3-|
E|-------------------3-------3--1-1-1-1-1-3-1-1-|


Chorus 1:
       C           G          Am7        F7M/C          
E|-----0-----|-----3-----|-----0-----|-----0-----|
B|-----1-----|-----3-----|-----1-----|-----1-----|
G|-----0-----|-----0-----|-----0-----|-----2-----|  
D|-----2-----|-----0-----|-----2-----|-----3-----|    2x
A|-----3-----|-----2-----|-----0-----|-----3-----|
E|-----x-----|-----3-----|-----0-----|-----0-----|


Verse 2:
E|-------------------------------------|
B|------------3-----------------3------|
G|------2---2---2---------2---2---2----|       -|
D|----4---4-------0-----2---2-------2--|        |
A|--5-----------------4----------------|        |
E|-------------------------------------|        |
                                                | - 3X
   Am7               F6(9)                      |
E|-------------------------------------|        |
B|------------3----------3-----3----3--|        |
G|------2---2---2----------2---2----2--|       -|
D|----4---4-------4----2-------2----2--|
A|--2----------------------------------|
E|-------------------3-------3----3----|


And:
       C           G          Am7        F7M/C          
E|-----0-----|-----0-----|-----0-----|-----0-----|
B|-----1-----|-----1-----|-----1-----|-----1-----|
G|-----0-----|-----0-----|-----0-----|-----2-----|
D|-----2-----|-----0-----|-----2-----|-----3-----|
A|-----3-----|-----2-----|-----0-----|-----3-----|
E|-----x-----|-----x-----|-----x-----|-----0-----|


       C           G          Am7             F5          
E|-----0-----|-----0-----|-----0-----|-----------------|
B|-----1-----|-----1-----|-----1-----|-----------------|
G|-----0-----|-----0-----|-----0-----|-----------------|
D|-----2-----|-----0-----|-----2-----|-3-3-3-3-3-3-3-3-|
A|-----3-----|-----2-----|-----0-----|-3-3-3-3-3-3-3-3-|
E|-----x-----|-----x-----|-----x-----|-1-1-1-1-1-1-1-1-| 


Chorus 2:
       C           G          Am7        F7M/C          
E|-----0-----|-----3-----|-----0-----|-----0-----|
B|-----1-----|-----3-----|-----1-----|-----1-----|
G|-----0-----|-----0-----|-----0-----|-----2-----|   
D|-----2-----|-----0-----|-----2-----|-----3-----|    2x
A|-----3-----|-----2-----|-----0-----|-----3-----|
E|-----x-----|-----3-----|-----0-----|-----0-----|


Bridge:
      Am7        F7M/C         G           Em         Am7
E|-----0-----|-----0-----|-----3-----|-----0-----|-----0-----|
B|-----1-----|-----1-----|-----3-----|-----0-----|-----1-----|
G|-----0-----|-----2-----|-----0-----|-----0-----|-----0-----| 
D|-----2-----|-----3-----|-----0-----|-----2-----|-----2-----|
A|-----0-----|-----3-----|-----2-----|-----2-----|-----0-----|
E|-----0-----|-----0-----|-----3-----|-----0-----|-----0-----|

     F7M/C         G             Em
E|-----0-----|-----3-----|-----------------|
B|-----1-----|-----3-----|-----------------|
G|-----2-----|-----0-----|-----------------| 
D|-----3-----|-----0-----|-2-2-2-2-2-2-2-2-|
A|-----3-----|-----2-----|-2-2-2-2-2-2-2-2-|
E|-----0-----|-----3-----|-0-0-0-0-0-0-0-0-|


Verse 3:
          C                 G                Am7             F6(9)          
E|-----------------|-----------------|-----------------|---------------|
B|-----------1-----|-----------1-----|-----------1-----|-----1-----1-1-|
G|-----0---0---0---|-----0---0---0---|-----0---0---0---|-------0---0-0-|  
D|---2---2-------2-|---0---0-------0-|---2---2-------2-|---0-----------|  
A|-3---------------|-2---------------|-0---------------|---------------|
E|-----------------|-----------------|-----------------|-1-------1-----| 

          C                 G                Am7               F5           
E|-----------------|-----------------|-----------------|-----------------|
B|-----------1-----|-----------1-----|-----------1-----|-----------------|
G|-----0---0---0---|-----0---0---0---|-----0---0---0---|-----------------|
D|---2---2-------2-|---0---0-------0-|---2---2-------2-|-3-3-3-3-3-3-3-3-|
A|-3---------------|-2---------------|-0---------------|-3-3-3-3-3-3-3-3-|
E|-----------------|-----------------|-----------------|-1-1-1-1-1-1-1-1-|


Last Chorus:
       C           G          Am7        F7M/C          
E|-----0-----|-----3-----|-----0-----|-----0-----|
B|-----1-----|-----3-----|-----1-----|-----1-----|
G|-----0-----|-----0-----|-----0-----|-----2-----|   
D|-----2-----|-----0-----|-----2-----|-----3-----|    
A|-----3-----|-----2-----|-----0-----|-----3-----|
E|-----x-----|-----3-----|-----0-----|-----0-----|              
                                                                 
       C           G           Am          F                            
E|-----0-----|-----3-----|-----0-----|-----------------|         
B|-----1-----|-----3-----|-----1-----|-----------------|         
G|-----0-----|-----0-----|-----2-----|-----------------|         
D|-----2-----|-----0-----|-----2-----|-3-3-3-3-3-3-3-3-|         
A|-----3-----|-----2-----|-----0-----|-3-3-3-3-3-3-3-3-|         
E|-----x-----|-----3-----|-----x-----|-1-1-1-1-1-1-1-1-|  


       C           G          Am7        F7M/C          
E|-----0-----|-----3-----|-----0-----|-----0-----|
B|-----1-----|-----3-----|-----1-----|-----1-----|
G|-----0-----|-----0-----|-----0-----|-----2-----|   
D|-----2-----|-----0-----|-----2-----|-----3-----|    
A|-----3-----|-----2-----|-----0-----|-----3-----|
E|-----x-----|-----3-----|-----0-----|-----0-----|                
                                                                 
       C           G           Am          F                            
E|-----0-----|-----3-----|-----0-----|-----------------|         
B|-----1-----|-----3-----|-----1-----|-----------------|         
G|-----0-----|-----0-----|-----2-----|-----------------|         
D|-----2-----|-----0-----|-----2-----|-3-3-3-3-3-3-3-3-|         
A|-----3-----|-----2-----|-----0-----|-3-3-3-3-3-3-3-3-|         
E|-----x-----|-----3-----|-----x-----|-1-1-1-1-1-1-1-1-|        


       C           G          Am7        F7M/C          
E|-----0-----|-----3-----|-----0-----|-----0-----|
B|-----1-----|-----3-----|-----1-----|-----1-----|
G|-----0-----|-----0-----|-----0-----|-----2-----|   
D|-----2-----|-----0-----|-----2-----|-----3-----|    
A|-----3-----|-----2-----|-----0-----|-----3-----|
E|-----x-----|-----3-----|-----0-----|-----0-----|             
                                                                
       C           G           Am          F                    
E|-----0-----|-----3-----|-----0-----|------1----1-|        
B|-----1-----|-----3-----|-----1-----|------1----1-|        
G|-----0-----|-----0-----|-----2-----|------2----2-|        
D|-----2-----|-----0-----|-----2-----|-3--3-3--3-3-|        
A|-----3-----|-----2-----|-----0-----|-3--3-3--3-3-|        
E|-----x-----|-----3-----|-----x-----|-1--1-1--1-1-| 




comments
print report bad tab
I want to post or [tab]
guest
You may want to rate the tab now too:
select rating
Please do not post tabs as comments. Select "correction" instead!