Oops, an error
Loading. Please wait.

Flannel Tab

version 2
version 2

Intro

  • These are more correct than version 1.
1,015 views 39 this week
no commentswrite comment
1 2 3 4 5
x 3
add to favorites
launch autoscroll
font size
0
reset
how to read this tab
guitar tuner
Autoscroll
slow
fast
+/-
esc
set tempo
stop
Author
Difficulty
Capo
novice
3rd fret
About this tab version
These are more correct than version 1. Was this info helpful? Yes No
There are two versions of this - the album version and the version from the SlightlyDrowzy session
(which can be seen here: https://www.youtube.com/watch?v=DKZA0EFQeVU) - and the only real difference is
the little "riff" in the middle. Both versions are below.

Slightly Drowzy Version:

e|----------------------------------------------------------------------|
B|------------------------------------------3-------1p0-----------------|
G|-----0--------------0-------------0----------0------------------------|
D|--------2---2----------0---0--------0------------------0--------------|
A|----------2--------------0------------2-------------------------------|
E|-0--------------2--------------3---------------3----------------------|

e|----------------------------------------------------------------------|
B|----------------------------------------------------------------------|
G|-----0--------------0-------------0------0------0---------------------|
D|--------2---2----------0---0--------0------0------0---0---------------|
A|----------2--------------0------------2------2------2-----------------|
E|-0--------------2--------------3--------------------------------------|(x3)

Album Version:

e|----------------------------------------------------------------------|
B|------------------------------------------3-1-0--0-0h1p0--------------|
G|-----0--------------0-------------0-----------------------------------|
D|--------2---2----------0---0--------0---------------------------------|
A|----------2--------------0------------2-------------------------------|
E|-0--------------2--------------3--------------------------------------|


e|----------------------------------------------------------------------|
B|----------------------------------------------------------------------|
G|-----0--------------0-------------0------0------0---------------------|
D|--------2---2----------0---0--------0------0------0---0---------------|
A|----------2--------------0------------2------2------2-----------------|
E|-0--------------2--------------3--------------------------------------|(x3)



************************************

| p  Pull-off
| h  Hammer-on

************************************
Suggest correction
Give kudos to tab author, rate the tab!
1 2 3 4 5
comments
print report bad tab
guest
You may want to rate the tab now too:
select rating
Wanna post a correction for this tab? Suggest correction