Oops, an error
Loading. Please wait.

After All Tab

366 views 1 this week
no commentswrite comment
1 2 3 4 5
please rate
add to favorites
launch autoscroll
font size
0
reset
how to read this tab
guitar tuner
Tab Pro tools
  • play this tab
  • loop segment
  • change instrument
  • show fretboard
  • metronome
×
Best way to learn
"After All"
Autoscroll
slow
fast
+/-
esc
set tempo
stop
Contributor
Difficulty
novice
-------------------------------------------------------------------------------
                                        After All - The Cardigans
-------------------------------------------------------------------------------
Tabbed by:Vtrillo627
Email:vincenttrillo@yahoo.com

Tuning:Standard


There are two versions of this song. This is the version with the piano playing the song 
and just the solo is guitar.


Solo:

e|----------------------------------------13--16-15-14-13-------------------|
B|-----------------------------9----11-14-----------------------------------|
G|---9/10---10h11p10-8---10-11----------------------------13/15-13----------|
D|--------------------------------------------------------------------------|
A|--------------------------------------------------------------------------|
E|--------------------------------------------------------------------------|

e|---12h13-14-11-13---------------------------------------------------------|
B|------------------14\11---9-11-11/13-9---------------9-9/10-11p9-11-------|
G|---------------------------------------10----8-10-11----------------10\---|
D|--------------------------------------------------------------------------|
A|--------------------------------------------------------------------------|
E|--------------------------------------------------------------------------|

e|--------------------------------------------------------------------------|
B|---9-------------------------9--------------------------------------------|
G|-----11-10h11p10-8-10-------x--11-10-8------------------------------------|
D|---------------------------x-----------11---------------------------------|
A|--------------------------x--------------12-11--8h9p8---------------------|
E|------------------------------------------------------9\------------------|






************************************

| /   slide up
| \   slide down
| h   hammer-on
| p   pull-off
| ~   vibrato
| +   harmonic
| x   Mute note
| b   Bend
| pb  Pre-bend
| br  Bend release
| pbr Pre-bend release
| brb Bend release bend

************************************
comments
We did not receive enough feedback on this tab! Please rate:
print report bad tab
1 2 3 4 5
I want to post or [tab]
guest
You may want to rate the tab now too:
select rating
Please do not post tabs as comments. Select "correction" instead!