Oops, an error
Loading. Please wait.

Celia Inside tab

version 2
version 2

Whole song

415 views 15 this week
no commentswrite comment
1 2 3 4 5
3 more votes to show rating
add to favorites
×
Save as Personal and add changes to this tab that will be seen only by you. Learn more ›
×
You can save this tab as Personal to edit and correct it or add notes. All changes will be seen only by you. Learn more »
launch autoscroll
font size
0
reset
how to read this tab
guitar tuner
edit
Autoscroll
slow
fast
+/-
esc
set tempo
stop
Author
Unregistered
[RIFF AND CHORDS]
 ----------------------------------------------------------------------------
[Riff 1]
    Emsus                A13                      Emsus                    A13
e|-------5-5----5-----5-----5-5-----5------5------5-5-----9-h10-9--7s5-----5-|
B|-------0-0----0-----0-----7-7-----7------7------0-0-----0----------------7-|
G|-------0-0----0-----0-----6-6-----6------6------0-0-----0----------------6-| (drum fill)
D|---------------------------------------------------------------------------|
A|-----------------------0-------0--------0-------0------0-----------------0-|
E|----0-------0-----0--------------------------------------------------------|

[Riff 2] (basically the same thing as riff 1 but varied slightly)
    Emsus                A13                      Emsus                    A13  (trill here)
e|-------5-5----5-----5-----5-5---3s5----3s5------5-5---------------------5-5---5r0h5r0-----|
B|-------0-0----0-----0-----7-7---5s7----5s7------0-0-----0--3--5s7-------7-7---7------7----|
G|-------0-0----0-----0-----6-6---4s6----4s6------0-0---------------------6-6---6---------6-|
D|------------------------------------------------------------------------------------------|
A|-----------------------0-------0--------------0------0--------------0--------0------------|
E|----0-------0-----0-----------------------------------------------------------------------|

All other chords (either in syncopated rhythm or arpeggiated)
   Emsus   A13  Dm13  Ebdim7  Em7   A7-13   Dmaj7  Gmaj7   Cmaj7  C#dim7  Bbdim7  Bm   D6
e|---5------5-----7----------------------------------7----------------------------------H7--|
B|---0------7-----6-----7------8-----7--------7------7-------5-------5-------2------3---H7--|
G|---0------6-----7-----5------7-----6--------6------7-------4-------3-------0------4---H7--|
D|----------------------7------9-----5--------7------5-------5-------5-------2------4-------|
A|----------0-----5-----6------7--------------5--------------3-------4-------1------2-------|
E|---0-------------------------------5------------------------------------------------------|
.
.
-----------------------------------------------------------------------------
[Riff 1] followed by [riff 2]

[Verse 1] (variations on riffs 1 and 2)
    Emsus                       A13
you don't want the sun to shine in
   Emsus                  A13
so you turn the curtains down
     Emsus                     A13
your eyes still don't show me a thing
    Emsus     A13             Dm13  Ebdim7
and you don't feel it's sunny outside

[Verse 2] (variations on riffs 1 and 2)
    Emsus                  A13
you don't want no joy for a while
    Emsus               A13
but you stay up late at night
   Emsus                       A13
it hurts you that she's still alive
   Emsus        A13        Dm13  Ebdim7  Em7 A7-13
so you'll raise flowerbeds inside

[Chorus]
            Dmaj7    Gmaj7                    Cmaj7
        but she, she will not get bothered at all
                   C#dim7                Dmaj7
        she's just watching the water at fall
               Gmaj7                           Cmaj7
        so you should give them just what they need
        C#dim7        Dmaj7
    water and poetry
          Gmaj7                  Cmaj7
        cause she will not bother at all
                   C#dim7                Dmaj7
        she's just watching the water at fall
               Gmaj7                           Cmaj7
        so you should give them just what they need
              Bbdim7                 Bm7
    cause she will not bother at all

    (last time to coda)
                      Ebdim7
        but you won't say you're not adored
               Emsus   A13       Emsus   A13
        by her beauty.... celia inside

[Verse 3](same chords as verse 2)
you don't want to feel her at all
but who's that fellowman of hers
with who, your dear celia moved
and they'll sleep happily inside

[Chorus]
            Dmaj7    Gmaj7                    Cmaj7
        but she, she will not get bothered at all
                   C#dim7                Dmaj7
        she's just watching the water at fall
               Gmaj7                           Cmaj7
        so you should give them just what they need
        C#dim7        Dmaj7
    water and poetry
          Gmaj7                  Cmaj7
        cause she will not bother at all
                   C#dim7                Dmaj7
        she's just watching the water at fall
               Gmaj7                           Cmaj7
        so you should give them just what they need
              Bbdim7                 Bm7
    cause she will not bother at all

[Coda]
                      Ebdim7
        but you won't say you're not adored
               Emsus
        by her beauty
                A13
        and her purity
                Emsus   A13
        and her lovely
              Emsus   A13
        celia inside
              Emsus  A13 D6
        celia in---------side.

************************************

| h  Hammer-on
| r  Release
| s  Slide
| H  harmonic

************************************

            
            
Suggest correction
Creating personal tab
Creating personal tab
You can edit any tab online and save it as your Personal.

You can edit, replace or remove any tab part or add personal notes – all changes will be seen only by you.

Personal tabs can be accessed anytime from any device, even offline.
Learn more »
Give kudos to tab author, rate the tab!
1 2 3 4 5
comments
print report bad tab
guest
Wanna post a correction for this tab? Suggest correction