Oops, an error
Loading. Please wait.

Dont Blame Your Daughter Bass Tab

679 views 1 this week
no commentswrite comment
1 2 3 4 5
please rate
add to favorites
launch autoscroll
font size
0
reset
guitar tuner
Tab Pro tools
  • play this tab
  • loop segment
  • change instrument
  • show fretboard
  • metronome
×
Best way to learn
"Dont Blame Your Daughter"
Autoscroll
slow
fast
+/-
esc
set tempo
stop
Contributor
-----------------------------------------------------------------------------
                 DON'T BLAME YOUR DAUGHTER by The Cardigans
-----------------------------------------------------------------------------

Tabbed By : Stephan Preuss
e-mail: tete@gmx.net

Tuning: E A D G

Verse 1 & 2

G|----------|---------|---------|---------| (2x)
D|--------8-|-6---6-8-|---5-8---|---------|
A|---6-10---|---6-----|-6-----8-|---------|
E|-8--------|---------|---------|-6-4-6-7-|

G|----------|---------|---------|---------| 
D|----------|---------|---------|---------|
A|-8~-------|-6~------|-8~------|-6~--6-5-|
E|--------4-|-------6-|-------4-|---------|

G|----------|---------|---------|---------| (2x)
D|--------8-|-6---6-8-|---5-8---|---------|
A|---6-10---|---6-----|-6-----8-|---------|
E|-8--------|---------|---------|-6-4-6-7-|

G|----------|---------|---------|---------| 
D|----------|---------|---------|---------|
A|-8~-------|-6~------|-8~------|-6~------|
E|--------4-|-------6-|-------4-|---------|

Chorus

G|----------|----------| (2x)
D|----------|----------|
A|----6-----|-6--------|
E|-4----6-6-|-----4----|

G|----------|----------|----------|---------|---------|---------|---------|
D|----------|----------|----------|---------|---------|---------|---------|
A|-8--------|-8--------|---6-8----|---------|---------|---------|---------|
E|-----8--8-|-----8----|-4-----6--|-8~----8\|-4-------|-8~----8\|-4-------|

Verse 3

Get lounder while playing
G|----------|----------|----------|----------|
D|----------|----------|----------|----------|
A|----------|----------|-66666666-|----------|
E|-88888888-|-44444444-|----------|-66666666-|

G|----------|----------|----------|----------|----------|
D|----------|----------|----------|----------|----------|
A|----------|----------|-66666666-|----------|-66666666-| 
E|-88888888-|-44444444-|----------|-66666666-|----------|

Chorus

G|----------|----------| (2x)
D|----------|----------|
A|----6-----|-6--------|
E|-4----6-6-|-----4----|

G|----------|----------|
D|----------|----------|
A|-8--------|-8--------|
E|-----8--8-|-----8----|

G|----------|----------| (2x)
D|----------|----------|
A|----6-----|-6--------|
E|-4----6-6-|-----4----|

Ending

G|----------|----------|---------|---------|
D|----------|----------|-------6~|---------|
A|-8--------|-8--------|---6-8---|---------|
E|-----8--8-|-----8----|-4-------|-------8~|


| /  slide up
| \  slide down
| h  hammer-on
| p  pull-off
| ~  vibrato
| +  harmonic
| x  Mute note
=============================================================================
comments
We did not receive enough feedback on this tab! Please rate:
print report bad tab
1 2 3 4 5
I want to post or [tab]
guest
You may want to rate the tab now too:
select rating
Please do not post tabs as comments. Select "correction" instead!