Oops, an error
Loading. Please wait.

Erase Rewind Tab

version 1
version 1

Intro

Whole song

Interactive

23,216 views 3 this week
1 commentread comment
1 2 3 4 5
accurate
x 5
add to favorites
launch autoscroll
font size
0
reset
how to read this tab
guitar tuner
Tab Pro tools
  • play this tab
  • loop segment
  • change instrument
  • show fretboard
  • metronome
Autoscroll
slow
fast
+/-
esc
set tempo
stop
Song:Erase/Rewind
Artist:The Cardigans
Album:Gran Turismo
Tabbed By:Cillian O'Hogan (cohogan@tinet.ie)
Tuning:Normal

I'm not tabbing the rhythm to it, you can figure it out yourself.
Chorus is a bit iffy.

Intro/main riff:
e|-------------------------------------------------------------------|
B|-----------------3--------------------------3----------------------|
G|--------------0-----4--2--4s6--2---------0-----4--2--4--2--4s6--2--|
D|--2--2--2--4-----------------------2--4----------------------------|
A|-------------------------------------------------------------------|
E|-------------------------------------------------------------------|

Verse bit:
e|-----------------------|
B|--------3--------3-----|
G|-----0--------0--------|
D|--4--------4--------2--|
A|-----------------------|
E|-----------------------|

Chorus:
e|-----------------------------------------------------|
B|-----------------------------------------------------|
G|--1--1-----------------------------------------------|
D|--2--2--7--5-----5-----5--7--5-----4--5--4--5--------|
A|--2--2--------7-----7-----------7--------------7--5--|
E|--0--0-----------------------------------------------|
comments
print report bad tab
1 comment total.
0 reply
_vampire wrote on August 30 2008, 09:25 am

Verse bit:
e|-----------------------|
B|--------3--------3-----|
G|-----4--------(2)--------|
D|--5--------4--------2--|
A|-----------------------|
E|-----------------------|
Nah?

I want to post or [tab]
guest
You may want to rate the tab now too:
select rating
Please do not post tabs as comments. Select "correction" instead!