Oops, an error
Loading. Please wait.

Feathers And Down Chords

version 1
version 1

Whole song

7,433 views 1 this week
3 commentsread comments
1 2 3 4 5
accurate
x 8
add to favorites
launch autoscroll
font size
0
reset
transpose
0
reset
simplify chords
display chords
guitar tuner
Tab Pro tools
  • play this tab
  • loop segment
  • change instrument
  • show fretboard
  • metronome
×
Best way to learn
"Feathers And Down"
Autoscroll
slow
fast
+/-
esc
set tempo
stop
Capo
2nd fret
The Cardigans - Feathers and Down
Tabbed by Squider (Squider@gmail.com)

Note: 
    You could use a capo on the 2nd fret
    and then drop each chord by 2 semitones
    (like C#m -> Hm and E -> D) to get much
    easier chords to play.

Intro (2x):
    C#m     E       H       F#


Verse 1:
C#m                          E   
    So you trying to do what they did
                              H
    Your friends that turn to liquid
                        F#  
    And got lost in the sea
                            C#m 
    And now you're drowning me
                               E   
    With your talk of full eat clovers
                          H   
    You turn to rocks and no man
                      F#  
    To be the ambient harm
                           N.C.
    But it's bruising your karma

C#m                        E   
    Oh I wish my arms were wider
                        H   
    I wish that I could hide you
                          F#  
    So you can rest and repair
                             C#m 
    Without the blanket of sorrow
                      F#  
    The thick and the grey
                    C#m 
    Your blanket of wool
                 F#  
    So heavy and stain
           G#5  H5         E5  
    And it only weighs you down
        C#m     E       H       F#  
    Aaa-aah...    


Solo 1:
    C#m     E       H       F#  


Verse 2:
C#m                             E   
    So you thought that getting sober
                             H   
    Would mean your life was over
                            F#  
    I don't think it's that bad
                            C#m 
    I don't think it's that sad
                            E   
    Just you sleep a little baby
                              H   
    Leave the world alone and later
                    F#  
    If you wake up alive
                        C#m 
    That old blanket of sorrow
                          F#  
    Could be feathers and down
                    C#m 
    Your blanket of wool    
                     F#  
    Would leave you alone
              G#5      A#5      H5  
    And I can love you till you drown


Solo 2 (3x):
    H5  D5  G5      G5  G5  G#5 

    G#5 E5  C5      C5  F#5 H5  


Outro:
N.C.     
    Come to me let's drown
        C#m     E       H   
    Aaa-aah...    
                    F#      C#m 
    Come baby let's drown
                    F#  
    In feathers and down


That's it, hope you liked it!
comments
print report bad tab
3 comments total.
0 reply
topopardo wrote on August 27 2009, 11:13 am

Any ideas on the solo strings? Also, I can't find a decent strumming, just downs is boring but nothing sounds good to me.

Amazing tab btw. The chords are delicious

0 reply
wo80 wrote on December 6 2014, 09:04 am, edited at 09:07 am

Thanks for the chords! Here are some ideas for the solo:
Verse:

Hint: keep index finger on 4th fret (small bar on the 4 bottom strings D-G-H-E)

. . . . . . . . Cm#. . . . . . . . . .E. . . . . . . . . . B. . . . . . . . . . F#
E|---------------------------------------------------------------------------------------
H|--4-4-4h5p4-----------------4h5p4--------------4h5p4------------------4h5p4------------
G|------------4-4h6-----------------4-------------------4---------------------4-4h6------
D|------------------------6-----------6-------6------------4----------4------------------
A|---------------------------------------------------------------------------------------
E|---------------------------------------------------------------------------------------

Solo 1:
. . . . . . . . .Cm#. . . . . . . . . .E. . . . . . . . . .B. . . . . . . . . .F#
E|--------------------------------------------------------------------------------6------
H|--------------------------------------------------5p4---5b7r5--4-4-----5-4--5b7...7r5--
G|--6-6-6b8r6-p4-6p4----------------------4~------4-----4---------------------^^^^^^^^^--
D|--------------------6--6~------6-4---6----------------------------------- hold bend, --
A|------------------------------------------------------------------------- then slow release
E|---------------------------------------------------------------------------------------

Solo 2:
. . H. . . . . . . . . . . . . . . . G
E|---------------------------------------------------------------------------------------
H|--4h7p4-------4------------------------------------------------------------------------
G|--------4-6p4---4----------4h7p4---7p4---4-----3---------------------------------------
D|-----------------------4-7-------7-----7-----------------------------------------------
A|---------------------------------------------------------------------------------------
E|---------------------------------------------------------------------------------------

. . G#m. . . . . . . . . . . . . . . C
E|---------------------------------------------------------------------------------------
H|--4h7p4-7-7b9r7-4----------------5-5b7r5---5-----7\------------------------------------
G|------------------4------4-7p4-7---------7---------------------------------------------
D|---------------------------------------------------------------------------------------
A|---------------------------------------------------------------------------------------
E|---------------------------------------------------------------------------------------

. . repeat (with small variations)

0 reply
td2243 wrote on September 28 2015, 03:37 am

Lack of accuracy. There's no such thing as an H chords. Lyrics are a mess and all over the place. Really should proofread before posting.

I want to post or [tab]
guest
You may want to rate the tab now too:
select rating
Please do not post tabs as comments. Select "correction" instead!