Oops, an error
Loading. Please wait.

For What Its Worth Tab

version 2
version 2

Intro

Whole song

Interactive

3,789 views 3 this week
1 commentread comment
1 2 3 4 5
2 more votes to show rating
add to favorites
launch autoscroll
font size
0
reset
how to read this tab
guitar tuner
×
Best way to learn
"For What Its Worth"
Autoscroll
slow
fast
+/-
esc
set tempo
stop
Ok, there's something missing but I can't quite put my finger on it...
If you figure it out please post the correct version.
This is my first tab and I've only had a guitar for a couple of months so...
(no wonder it ain't great) and since prior to that I had never touched a guitar
and I'm not having lessons I figured this was good enough :P
Enjoy!



|--------1-0-----0-----------0-----------0----------------1-0-----0---|
|------1-----3-1--------1----------1-----------1--------1-----3-1-----|
|--0-2---------------2-----2----2-----2-----2------0--2---------------|
|---------------------------------------------------------------------|
|---------------------------------------------------------------------|
|---------------------------------------------------------------------|


comments: bichomenor@hotmail.com
Maria (from PT too :)
Suggest correction
Give kudos to tab author, rate the tab!
1 2 3 4 5
comments
print report bad tab
1 comment total.
0 reply
chaotiix 10 Aug 11, 2009 10:47 PM

|--------1-p0-----0-----------0----------0---------------1-p0-----0---|
|------1-----3-1--------1----------1-----------1--------1-----3-1-----|
|--0-2---------------2-----2----2-----2-----2------0--2---------------|
|---------------------------------------------------------------------|
|---------------------------------------------------------------------|
|---------------------------------------------------------------------|

guest
You may want to rate the tab now too:
select rating
Wanna post a correction for this tab? Suggest correction