Oops, an error
Loading. Please wait.

Gordons Gardenparty Bass Tab

620 views 1 this week
no commentswrite comment
1 2 3 4 5
please rate
add to favorites
launch autoscroll
font size
0
reset
guitar tuner
Tab Pro tools
  • play this tab
  • loop segment
  • change instrument
  • show fretboard
  • metronome
×
Best way to learn
"Gordons Gardenparty"
Autoscroll
slow
fast
+/-
esc
set tempo
stop
Difficulty
novice
Intro

G|---------------------------------------------------------|
D|---------------------------------------------------------|
A|---5-6-7-------------/11-----------4/5--4/5---4----------|
E|---------------------------------------------------------|

Verse

G|---------------------------------------------------------|
D|---------------------------------------------------------|
A|---5-----5-------------1---------------------------------|
E|--------------2--3--5-------------5---3---5--------------|

G|---------------------------------------------------------|
D|---------------------------------------------------------|
A|---5-----5-------------1---------------------------------|
E|--------------2--3--5-------------5---3---3--------------|

G|---------------------------------------------------------|
D|---------------------------------------------------------|
A|---5-----5-------------1---------------------------------|
E|--------------2--3--5-------------5---3---5--------------|

First time
 
G|---------------------------------------------------------|
D|---------------------------------------------------------|
A|---5-----5-------------4/5----5--------------------------|
E|--------------2--3--5------------------------------------|

Second time

G|----------------------------------------------------------|
D|----------------------------------------------------------|
A|---5-----5-------------4/5----5------4/5----5------4----5-|
E|--------------2--3--5-------------------------------------|

And go into
G|---------------------------|
D|----9----7----5----4-------|
A|---------------------------|
E|---------------------------|

Chorus

G|-------------------------------------------------|
D|-------------------------------------------------|
A|--7----7-----------------------------4-----------|
E|------------2--3----5--------3----5--------------|

G|-------------------------------------------------|
D|-------------------------------------------------|
A|--5----5-----------------------------6-----------|
E|-----------2--3-----7--------5----7--------------|

G|-------------------------------------------------|
D|--------------5/8--------------------------------|
A|--7----------------------------4/5--4/5---4------|
E|-------------------------------------------------|

then go back into the verse

Song ends with riff from verse 

G|-------------------------------------------------------------------|
D|-------------------------------------------------------------------|
A|---5-----5--------------4/5---5-------4/5---5--------4---5---5-----|
E|--------------2--3--5----------------------------------------------|
comments
We did not receive enough feedback on this tab! Please rate:
print report bad tab
1 2 3 4 5
I want to post or [tab]
guest
You may want to rate the tab now too:
select rating
Please do not post tabs as comments. Select "correction" instead!