Oops, an error
Loading. Please wait.

Iron Man Tab

5,411 views 9 this week
2 commentsread comments
1 2 3 4 5
excellent!
x 4
add to favorites
launch autoscroll
font size
0
reset
how to read this tab
guitar tuner
Tab Pro tools
  • play this tab
  • loop segment
  • change instrument
  • show fretboard
  • metronome
×
Best way to learn
"Iron Man"
Autoscroll
slow
fast
+/-
esc
set tempo
stop
Contributor
Difficulty
intermediate
-------------------------------------------------------------------------------
                             Iron Man - The Cardigans
-------------------------------------------------------------------------------
Tabbed by: yonico12344
Email: yonico12344@walla.com

Originally by Black Sabbath.
This is a cover version from the album "First Band On The Moon"

Tuning: standard (EADGBe)

Intro:

e|------------------------------------------------------------------------------------------|
B|------------------------------------------------------------------------------------------|
G|-------------------5--6-7-------------------------------------5--6-7---7p6p5--------------|
D|-----------5--6--7----------/8p7-8p7-8p7--------------5--6--7----------------7--7-6p5\3---|
A|-5---5-5-8-------------------------------8--5---5-5-8-----------------------------------5-|
E|------------------------------------------------------------------------------------------|

Chorus: ("Oh, Iron man")

e|----------------------------------------------|
B|-6-6---6---6---5-4------6-6---6---6---5-4---6-|
G|-7-7---7---7---6-5------7-7---7---7---6-5---7-|
D|----------------------------------------------|
A|----------------------------------------------|
E|----------------------------------------------|

Verse 2: ("Now the time is here...")

e|-------------------|
B|-6---6---5---5-4-3-| x2
G|-7---7---6---6-5-4-|
D|-------------------|
A|-------------------|
E|-------------------|

Bridge: ("Nobody wants him...") 

e|--------------------------------------------------|----------------|
B|--------------------------------------------------|----------------|
G|-----------------------------------------5-6-7----|--------------7-|
D|-5--8--7------7--7-------------5--5-6-7--------x4-|-----------5----|
A|-----------8---------5--5--5-8--------------------|-5--5--5-8------|
E|--------------------------------------------------|----------------|

Outro:

e|----------------------------------------------------------------------------|
B|----------------------------------------------------------------------------|
G|-------------------5--6-7---------------------------------------------------|
D|-----------5--6--7----------/8p7-8p7-8p7--------------5--6------5-6-7-6-5---|
A|-5---5-5-8-------------------------------8--5---5-5-8-------5-8-----------8-|
E|----------------------------------------------------------------------------|

e|------------------------------|
B|------------------------------|
G|---------------------5h6h7~-\-|
D|-----5-6-7-6-5--5h6h7---------|
A|-5-8-----------8--------------|
E|------------------------------|


| /   slide up
| \   slide down
| h   hammer-on
| p   pull-off
| ~   vibrato
comments
print report bad tab
2 comments total.
0 reply
atmydrive-in wrote on January 29 2010, 05:06 pm

Nice work.. Been waiting for someone to tab this! TY =)

0 reply
artylandia wrote on April 1 2010, 11:32 pm

GOOD!!! one of my favorites covers!

I want to post or [tab]
guest
You may want to rate the tab now too:
select rating
Please do not post tabs as comments. Select "correction" instead!