Oops, an error
Loading. Please wait.

Lovefool Bass Tab

version 1
version 1

Whole song

Interactive

26,845 views 66 this week
no commentswrite comment
1 2 3 4 5
x 12
add to favorites
launch autoscroll
font size
0
reset
guitar tuner
×
Best way to learn
"Lovefool"
Autoscroll
slow
fast
+/-
esc
set tempo
stop
"Lovefool"
recorded by the Cardigans
lyrics and music by Peter Svensson and Nina Persson

The most current version of this tab can always be found at Fine Tabs
(http://www.dartmouth.edu/~htkwon/cardigans/tabs) [this address subject
to change slightly without notice].  This is a HumHongous Ltd. Production.
------------------------------------------------------------------------

[VERSE]
G|-------------| |---------------------------|
D|-------------| |---------------------------|
A|-------3--5--| |-------2--3--(3--3-2h3-2)--|
E|--5---5------| |--3---3--------------------|

  [BRIDGE]
G|------------------------------------------------|
D|------------------------------------------------|
A|--2-3---3-4---4-5---5-6--------6-7--------------|
E|------------------------------------------------|

  [CHORUS]
G|---------| |-----------|
D|---------| |-----------|
A|----4-5--| |-----5--7--|
E|--5------| |--7-7------|

G|------------|------------|------------|---|---------------|
D|------------|-------9----|------------|-7-|---------------|
A|--9-----9---|-----9---9--|-7-----7----|---|--------5---7--|
E|------9---9-|-7----------|-----7---7--|---|---------------|

  [TAG]
G|----------------------------------------|
D|----------------------------------7-----|
A|----------5----------7-----------[or]---|
E|--5-------------------------------5-----|

  [CODA]
G|---------| |-----------|
D|---------| |-----------|
A|----4-5--| |-----5--7--|
E|--5------| |--7-7------|

************************************

| h  Hammer-on

************************************
Suggest correction
comments
print report bad tab
guest
You may want to rate the tab now too:
select rating
Wanna post a correction for this tab? Suggest correction