Oops, an error
Loading. Please wait.

Lovefool Bass Tab

version 2
version 2

Whole song

Interactive

9,174 views 6 this week
no commentswrite comment
1 2 3 4 5
excellent!
x 3
add to favorites
launch autoscroll
font size
0
reset
guitar tuner
Tab Pro tools
  • play this tab
  • loop segment
  • change instrument
  • show fretboard
  • metronome
×
Best way to learn
"Lovefool"
Autoscroll
slow
fast
+/-
esc
set tempo
stop
Contributor
Difficulty
novice
My First Tab!!

I saw somebody else had tabbed Lovefool,
but they didnt show you how many times you had to do each riff
or when to do them, so i messed around with it and got this! 
It's really easy to play and i personally love the song, so go for it =]


[VERSE](:05-:37)
g-------------| g---------------------------|
d-------------| d---------------------------|
a-------3--5--| a-------2--3----------------|
e--5---5------| e--3---3--------------------| x4


[BRIDGE](:37-:41)
g------------------------------------------------|
d------------------------------------------------|
a--2-3---3-4---4-5---5-6---6-7-------------------|
e------------------------------------------------|


[CHORUS](:42-1:00)
g---------| g-----------|
d---------| d-----------|
a----4-5--| a-----5--7--|
e--5------| e--7-7------| x4

"Say that you need me..." (1:01-1:08)
g------------|------------|----------------|---------------|
d------------|-------9----|--------------7-|---------------|
a--9-----9---|-----9---9--|-7-----7--------|--------5---7--|
e------9---9-|-7----------|-----7---7------|---------------|

[CHORUS](1:09-1:18)
g---------| g-----------|
d---------| d-----------|
a----4-5--| a-----5--7--|
e--5------| e--7-7------| x2

"I Can't Care about anything but you" (1:19-1:21) 
g----------------------------------------|
d----------------------------------------|
a----------5----------7------------------|
e--5-------------------------------------|

[VERSE](1:27-1:59)
g-------------| g---------------------------|
d-------------| d---------------------------|
a-------3--5--| a-------2--3----------------|
e--5---5------| e--3---3--------------------| x4

[BRIDGE](1:59-2:03)
g------------------------------------------------|
d------------------------------------------------|
a--2-3---3-4---4-5---5-6---6-7-------------------|
e------------------------------------------------|

[CHORUS](2:05-2:22)
g---------| g-----------|
d---------| d-----------|
a----4-5--| a-----5--7--|
e--5------| e--7-7------| x4

"So I Cry..and I Beg... for you to" (2:23-2:30)
g------------|------------|----------------|---------------|
d------------|-------9----|--------------7-|---------------|
a--9-----9---|-----9---9--|-7-----7--------|--------5---7--|
e------9---9-|-7----------|-----7---7------|---------------|

[CHORUS](2:31-2:39)
g---------| g-----------|
d---------| d-----------|
a----4-5--| a-----5--7--|
e--5------| e--7-7------| x2

"I Can't Care about anything but you" (2:40-2:42) 
g----------------------------------------|
d----------------------------------------|
a----------5----------7------------------|
e--5-------------------------------------|

[CHORUS](2:44-3:05)
g---------| g-----------|
d---------| d-----------|
a----4-5--| a-----5--7--|
e--5------| e--7-7------|

"I Can't Care about anything but you" (3:05-3:08) 
g----------------------------------------|
d----------------------------------------|
a----------5----------7------------------|
e--5-------------------------------------|
comments
We did not receive enough feedback on this tab! Please rate:
print report bad tab
1 2 3 4 5
I want to post or [tab]
guest
You may want to rate the tab now too:
select rating
Please do not post tabs as comments. Select "correction" instead!