Oops, an error
Loading. Please wait.

Best Friends Girl Tab

12,789 views 9 this week
5 commentsread comments
1 2 3 4 5
not so good
x 8
add to favorites
launch autoscroll
font size
0
reset
how to read this tab
guitar tuner
Tab Pro tools
  • play this tab
  • loop segment
  • change instrument
  • show fretboard
  • metronome
Autoscroll
slow
fast
+/-
esc
set tempo
stop
Difficulty
novice
regular tunning

e[---------------------------------------------]
b[---------------------------------------------]
g[---------------------------------------------]  repeat x amout of times
d[---------------------------------------------]
a[---------------------3--3-3---3-3--5-5-5-55--]
e[---3---3-3---3---3-3-------------------------]
comments
print report bad tab
5 comments total. Showing first comments.
0 reply
cowguru2000 wrote on March 9 2008, 07:01 pm

horrible.

0 reply
Joel Reinhardus wrote on June 19 2008, 04:39 pm

e--------------------------------------
b--------------------------------------
g------------------3-3-3-3---5-5-5-5---
d--3-3-3-3---3-3---3-3-3-3---5-5-5-5---
a--3-3-3-3---3-3---1-1-1-1---3-3-3-3---
e--1-1-1-1---1-1-----------------------
. . . . . . . . . . . . . .

.=palm mute

0 reply
Joel Reinhardus wrote on June 27 2008, 03:56 pm

sorry...palm mute the whole thing

I want to post or [tab]
guest
You may want to rate the tab now too:
select rating
Please do not post tabs as comments. Select "correction" instead!