Oops, an error
Loading. Please wait.

Bye Bye Love Bass Tab

version 2
version 2

Whole song

Interactive

756 views 24 this week
no commentswrite comment
1 2 3 4 5
excellent!
x 1
add to favorites
launch autoscroll
font size
0
reset
guitar tuner
Tab Pro tools
  • play this tab
  • loop segment
  • change instrument
  • show fretboard
  • metronome
Autoscroll
slow
fast
+/-
esc
set tempo
stop
Contributor
Difficulty
novice
Ben Orr is easily recognized as the good looking front man for the Cars but his bass 
playing goes largly unrecognized by his groupies -a true musician, he is.

Tabbed by: BASSteve

Tuning: EADG

Time signature: 4/4

r = rest (listen for duration)
/ = slide (low to high)
\ = slide (high to low)
||= measure gets repeated (see number of times above measure, e.g. 4x)
x = muted note

*My tabs are meant to be read in conjunction with listening to the song.
In other words, there are no specific notations to account for note/rest duration.
However, you will find that I've made an attempt to strategically space the notes
and rests within their respective measures in order to represent the appropriate
durations.


INTRO

G|4-6-7---4-6-7-----------4-6-7-9-|--------------------------------|
D|--------------------------------|--------------------------------|
A|--------------------------------|7---7---7---7---7---7---7---7---|
E|--------------------------------|--------------------------------|



|--------------------------------|--------------------------------|
|--------------------------------|--------------------------------|
|7---7---7---7---7---7---7---0---|7-----------4---5---------5-4---|
|--------------------------------|--------------------------------|



|--------------------------------|-------------------------11-9-r---|
|--------------------------------|--------11-9-r-------x-x----------|
|----4---2/------7---------------|x-x-7-7---------------------------|
|--------------------0-----------|----------------------------------|



|----x-x-14-13--------------------|--------------------------------|
|--------------14---------x-x-7-6-|--------------------------------|
|---------------------------------|7\----------4---5-----------4---|
|---------------------------------|--------------------------------|



                                 VERSE

                                                           3x
|--------------------------------||--------------------------------|
|--------------------------------||--------------------------------|
|----4---2/------7---------------||7---7---7---7---7---7---7---7---|
|--------------------0---------0-||--------------------------------|



|--------------------------------|--------------------------------|
|--------------------------------|--------------------------------|
|7---7---7---7---7---7---7---0---|7-----------4---5---------5-4---|
|--------------------------------|--------------------------------|



|--------------------------------||--------------------------------|
|--------------------------------||--------------------------------|
|----4---2/------7---------------||7---7---7---7---7---7---7---7---|
|--------------------0---------0-||--------------------------------|



|--------------------------------|--------------------------------|
|--------------------------------|--------------------------------|
|7---7---7---7---7---7---7---0---|7-----------4---5---------5-4---|
|--------------------------------|--------------------------------|



                                                         PRE-CHORUS

|--------------------------------|--------------------------------|
|----------------------------0---|5-------------------------------|
|----4---2/------7---------------|--------------------------------|
|--------------------------------|--------------------------------|



|--------------------------------|--------------------------------|
|------------------------4-------|5-------------------------------|
|5-----------7-------------------|--------------------------------|
|--------------------------------|--------------------------------|



|--------------------------------|--------------------------------|
|4-----------5-----------7-------|5-------------------------------|
|--------------------------------|--------------------------------|
|--------------------------------|--------------------------------|



                                                         CHORUS

                                                           2x
|--------------------------------||--------------------------------|
|4---5---7-------4---5---7---7---||----------------9---9---r-------|
|--------------------------------||7---7---r-----------------------|
|--------------------------------||--------------------------------|



|--------------------------------||--------------------------------|
|7---7---r-------7---7---r-------||----------------9---9---r-------|
|--------------------------------||7---7---r-----------------------|
|--------------------------------||--------------------------------|



|--------------------------------|--------------------------------|
|7---7\--------------------------|----------------9---9---r-------|
|----------------0---0-----------|7---7---r-----------------------|
|--------------------------------|--------------------------------|



|--------------------------------|
|7---7---7-------7---------------|
|--------------------------------|
|--------------------------------|



[VERSE]

[PRE-CHORUS]

[CHORUS (2x)]

[VERSE]

[PRE-CHORUS]

[CHORUS]



OUTRO

  4x
||--------------------------------|--------------------------------|
||----------------9---9---r-------|7---7---r-------7---7---r---0---|
||7---7---r-----------------------|--------------------------------|
||--------------------------------|--------------------------------|



|--------------------------------|--------------------------------||
|--------------------------------|--------------------------------||
|7-----------4---5---------5-4---|----4---2/------7---------------||
|--------------------------------|--------------------0-----------||



|--------------------------------|--------------------------------|
|----------------9---9---r-------|7---7---r-------7---7---r-------|
|7---7---r-----------------------|--------------------------------|
|--------------------------------|--------------------------------|



|--------------------------------|4-6-7---4-6-7-----------4-6-7-9-|
|----------------9---9---r-------|--------------------------------|
|7---7---r-----------------------|--------------------------------|
|--------------------------------|--------------------------------|



|--------------------------------|--------------------------------|
|----------------9---9---r-------|7---7---r-------7---7---r-------|
|7---7---r-----------------------|--------------------------------|
|--------------------------------|--------------------------------|



|--------------------------------|4-6-7---4-6-7-----------4-6-7---|
|----------------9---9---r-------|--------------------------------|
|7---7---r-----------------------|--------------------------------|
|--------------------------------|--------------------------------|



|4-6-7-----------4-6-7---4-6-7---|4-6-7---4-6-7-9-r---------------|
|--------------------------------|--------------------------------|
|--------------------------------|--------------------------------|
|--------------------------------|--------------------------------|


               (PLEASE RATE THIS TAB / LEAVE COMMENT)
comments
We did not receive enough feedback on this tab! Please rate:
print report bad tab
1 2 3 4 5
I want to post or [tab]
guest
You may want to rate the tab now too:
select rating
Please do not post tabs as comments. Select "correction" instead!