Oops, an error
Loading. Please wait.

Bye Bye Love Tab

version 2
version 2

Whole song

Interactive

19,643 views 24 this week
1 commentread comment
1 2 3 4 5
excellent!
x 8
add to favorites
launch autoscroll
font size
0
reset
how to read this tab
guitar tuner
Tab Pro tools
  • play this tab
  • loop segment
  • change instrument
  • show fretboard
  • metronome
×
Best way to learn
"Bye Bye Love"
Autoscroll
slow
fast
+/-
esc
set tempo
stop
Contributor
Band: The Cars
Song: Bye Bye Love
Tuning: Standard (EADGBe)
Author: Eliyahu of Ultimate-Guitar.com

h  | hammer-on
p  | pull-off
b  | bend
r  | release bend
pb | pre-bend
v  | vibrato
~  | sustain note
/  | slide up
\  | slide down

INTRO
---------------------------------|
---------------------------------|
-------------------------------9-|
-9-11-12--9-11-12~~~---9-11-12---|
---------------------------------|
---------------------------------|

--------------------------------------------------------------|
---------7-------5-------9------------------------------------|
---------7-------6-------9-------9-----7------6--------9~~----|
---------7-------7-------9-----------9------7------7/9------9-|
-----------------------------------7------5------4--------7---|
-0-0-0-0---0-0-0---0-0-0---0-0-0------------------------------|

--------------------------------------------------------------|
-9-------7-------5-------9------------------------------------|
-9-------7-------6-------9-------9-----7------6--------9~~----|
-9-------7-------7-------9-----------9------7------7/9------9-|
-----------------------------------7------5------4--------7---|
---0-0-0---0-0-0---0-0-0---0-0-0------------------------------|

VERSE 1
--------------------------------------------------------------|
-9-------7-------5-------9------------------------------------|
-9-------7-------6-------9-------9-----7------6--------9~~----|
-9-------7-------7-------9-----------9------7------7/9------9-|
-----------------------------------7------5------4--------7---|
---0-0-0---0-0-0---0-0-0---0-0-0------------------------------|
I can't feel this way much longer, expecting to survive

--------------------------------------------------------------|
-9-------7-------5-------9------------------------------------|
-9-------7-------6-------9-------9-----7------6--------9~~----|
-9-------7-------7-------9-----------9------7------7/9------9-|
-----------------------------------7------5------4--------7---|
---0-0-0---0-0-0---0-0-0---0-0-0------------------------------|
With all these hidden innuendoes, just waiting to arrive

--------------------------------------------------------------|
-9-------7-------5-------9------------------------------------|
-9-------7-------6-------9-------9-----7------6--------9~~----|
-9-------7-------7-------9-----------9------7------7/9------9-|
-----------------------------------7------5------4--------7---|
---0-0-0---0-0-0---0-0-0---0-0-0------------------------------|
It's such a wavy midnight, and you slip into insane

----------------------------------------------------------|
-9------7-------5-------9---------------------------------|
-9------7-------6-------9-------9-----7------6--------9~~-|
-9------7-------7-------9-----------9------7------7/9-----|
----------------------------------7------5------4---------|
--0-0-0---0-0-0---0-0-0---0-0-0---------------------------|
Electric angel rock and roller, I hear what you're playin'

PRECHORUS 1
--------------21-17---------------------------------|
---7-------19-------19~----7------------------------|
-4---7-4~----------------4---7-4~-------------------|
------------------------------------/6-7-9-7-6------|
------------------------------------/4-5-7-5-4-2~~~-|
----------------------------------------------------|
It's an orangy sky, always it's some other guy

--------------21-17-----|
---7-------19-------19~-|
-4---7-4~---------------|
------------------------|
------------------------|
------------------------|
It's just a broken lullaby

CHORUS 1
-----------------------------------------|
------3-3--2-2--2-2--------3-3--2-2--2-2-|
-1-1--2-2--2-2--2-2---1-1--2-2--2-2--2-2-|
-2-2--0-0--2-2--2-2---2-2--0-0--2-2--2-2-|
-2-2-------0-0--0-0---2-2-------0-0--0-0-|
-0-0------------------0-0----------------|
Bye, bye love         Bye, bye love

-----------------------------------------|
------3-3--2-2--2-2--------3-3--2-2--2-2-|
-1-1--2-2--2-2--2-2---1-1--2-2--2-2--2-2-|
-2-2--0-0--2-2--2-2---2-2--0-0--2-2--2-2-|
-2-2-------0-0--0-0---2-2-------0-0--0-0-|
-0-0------------------0-0----------------|
Bye, bye love         Bye, bye love

VERSE 2
---------------------------------------------------------------|
-9-------7-------5-------9-------------------------------------|
-9-------7-------6-------9-------9-----7------6--------9~~-----|
-9-------7-------7-------9-----------9------7------7/9------9--|
-----------------------------------7------5------4--------7----|
---0-0-0---0-0-0---0-0-0---0-0-0-------------------------------|
Substitution mass confusion, clouds inside your head

----------------------------------------------------------|
-9-------7-------/5-7-9-----------------------------------|
-9-------7-------/6-7-9-4~~~-9-----7------6--------9~~----|
-9-------7-------/7-7-9-4~~~-----9------7------7/9------9-|
------------------------2~~~---7------5------4--------7---|
---0-0-0---0-0-0------------------------------------------|
Involving all my energies, until you visited

--------------------------------------------------------------|
-9-------7-------5-------9------------------------------------|
-9-------7-------6-------9-------9-----7------6--------9~~----|
-9-------7-------7-------9-----------9------7------7/9------9-|
-----------------------------------7------5------4--------7---|
---0-0-0---0-0-0---0-0-0---0-0-0------------------------------|
With your eyes of porcelain and of blue, they shock me into sense

----------------------------------------------------------|
-9------7-------5-------9---------------------------------|
-9------7-------6-------9-------9-----7------6--------9~~-|
-9------7-------7-------9-----------9------7------7/9-----|
----------------------------------7------5------4---------|
--0-0-0---0-0-0---0-0-0---0-0-0---------------------------|
You think you're so illustrious, you call yourself intense

PRECHORUS 2
--------------21-17---------------------------------|
---7-------19-------19~----7------------------------|
-4---7-4~----------------4---7-4~-------------------|
------------------------------------/6-7-9-7-6------|
------------------------------------/4-5-7-5-4-2~~~-|
----------------------------------------------------|
It's an orangy sky, always it's some other guy

--------------21-17-----|
---7-------19-------19~-|
-4---7-4~---------------|
------------------------|
------------------------|
------------------------|
It's just a broken lullaby

CHORUS 2
-----------------------------------------|
------3-3--2-2--2-2--------3-3--2-2--2-2-|
-1-1--2-2--2-2--2-2---1-1--2-2--2-2--2-2-|
-2-2--0-0--2-2--2-2---2-2--0-0--2-2--2-2-|
-2-2-------0-0--0-0---2-2-------0-0--0-0-|
-0-0------------------0-0----------------|
Bye, bye love         Bye, bye love

-----------------------------------------|
------3-3--2-2--2-2--------3-3--2-2--2-2-|
-1-1--2-2--2-2--2-2---1-1--2-2--2-2--2-2-|
-2-2--0-0--2-2--2-2---2-2--0-0--2-2--2-2-|
-2-2-------0-0--0-0---2-2-------0-0--0-0-|
-0-0------------------0-0----------------|
Yeah, bye, bye love         Bye, bye love-ov-ov-ove

SYNTH SOLO
-/19-/19-/19-/19-/19-/19-/19v~~~---16p12----16p12----16----|
-----------------------------------------14-------14----14-|
-----------------------------------------------------------|
-----------------------------------------------------------|
-----------------------------------------------------------|
-----------------------------------------------------------|

-------------------------------17-19p17----19p17----19p17----19p17----|
-19p15----19p15----19p15----19----------19-------17-------19-------17-|
-------16-------16-------16-------------------------------------------|
----------------------------------------------------------------------|
----------------------------------------------------------------------|
----------------------------------------------------------------------|
----------------------------------------------------------------------|

-19p17----19----17-19-16-17-14-16-12-14-10-12-9-10-7-9-5-7-9-10-|
-------17----17-------------------------------------------------|
----------------------------------------------------------------|
----------------------------------------------------------------|
----------------------------------------------------------------|
----------------------------------------------------------------|

-7-9-5-7-4-5-2-4-0---16p14p12-16p14p12-16p14p12-16p14p12-16p14p12-|
------------------------------------------------------------------|
------------------------------------------------------------------|
------------------------------------------------------------------|
------------------------------------------------------------------|
------------------------------------------------------------------|

-16p14p12-16p14p12-16p14p12-16p14p12-16p14p12-|
----------------------------------------------|
----------------------------------------------|
----------------------------------------------|
----------------------------------------------|
----------------------------------------------|

VERSE 3
---------------------------------------------------------------|
-9-------7-------5-------9-------------------------------------|
-9-------7-------6-------9-------9-----7------6--------9~~-----|
-9-------7-------7-------9-----------9------7------7/9------9--|
-----------------------------------7------5------4--------7----|
---0-0-0---0-0-0---0-0-0---0-0-0-------------------------------|
Substitution mass confusion, clouds inside your head

----------------------------------------------------------|
-9-------7-------/5-7-9-----------------------------------|
-9-------7-------/6-7-9-4~~~-9-----7------6--------9~~----|
-9-------7-------/7-7-9-4~~~-----9------7------7/9------9-|
------------------------2~~~---7------5------4--------7---|
---0-0-0---0-0-0------------------------------------------|
Well foggin' all my energies, until you visited

--------------------------------------------------------------|
-9-------7-------5-------9------------------------------------|
-9-------7-------6-------9-------9-----7------6--------9~~----|
-9-------7-------7-------9-----------9------7------7/9------9-|
-----------------------------------7------5------4--------7---|
---0-0-0---0-0-0---0-0-0---0-0-0------------------------------|
With your eyes of porcelain and of blue, they shock me into sense

----------------------------------------------------------|
-9------7-------5-------9---------------------------------|
-9------7-------6-------9-------9-----7------6--------9~~-|
-9------7-------7-------9-----------9------7------7/9-----|
----------------------------------7------5------4---------|
--0-0-0---0-0-0---0-0-0---0-0-0---------------------------|
You think you're so illustrious, you call yourself intense

PRECHORUS 3
--------------21-17---------------------------------|
---7-------19-------19~----7------------------------|
-4---7-4~----------------4---7-4~-------------------|
------------------------------------/6-7-9-7-6------|
------------------------------------/4-5-7-5-4-2~~~-|
----------------------------------------------------|
It's an orangy sky, always it's some other guy

--------------21-17-----|
---7-------19-------19~-|
-4---7-4~---------------|
------------------------|
------------------------|
------------------------|
It's just a broken lullaby

CHORUS 3
-----------------------------------------|
------3-3--2-2--2-2--------3-3--2-2--2-2-|
-1-1--2-2--2-2--2-2---1-1--2-2--2-2--2-2-|
-2-2--0-0--2-2--2-2---2-2--0-0--2-2--2-2-|
-2-2-------0-0--0-0---2-2-------0-0--0-0-|
-0-0------------------0-0----------------|
Bye, bye love         Bye, bye love

-----------------------------------------|
------3-3--2-2--2-2--------3-3--2-2--2-2-|
-1-1--2-2--2-2--2-2---1-1--2-2--2-2--2-2-|
-2-2--0-0--2-2--2-2---2-2--0-0--2-2--2-2-|
-2-2-------0-0--0-0---2-2-------0-0--0-0-|
-0-0------------------0-0----------------|
Bye, bye love         Bye, bye love

GUITAR SOLO
---------------------2---------------|
-------------------------------------|
-2b4~~~r2--------4b6---4b6r4-2-2v~~~-|
-------------------------------------|
-------------------------------------|
-------------------------------------|

------------------------------------7-----7---------|
------------------------------------8b9---8b9-10b12-|
--------------------------7---7-6/9-----9-----------|
--------------------7-8/9---9-----------------------|
-/7\-/7-7-7-10p7-10---------------------------------|
----------------------------------------------------|

----12-10-----------------------------------------------------------|
-12-------12-11-10-8-10p8---8b9-------9pb10r9b11-9b10-8-----8-------|
--------------------------9-----9-----------------------9-6---9v~~~-|
--------------------------------------------------------------------|
--------------------------------------------------------------------|
--------------------------------------------------------------------|

-------------------------------------------------------------------------|
---11b12v~~~r11----10-8--------------------------------------------------|
-9----------------------9-9v~~~~~~\-9b10-10b11-11b12-12b13-13b14-14b15v~-|
-------------------------------------------------------------------------|
-------------------------------------------------------------------------|
-------------------------------------------------------------------------|

-------------------------------------|
-17-17-17-15p12----------------------|
----------------15p12----12v~~~~~~~\-|
----------------------14-------------|
-------------------------------------|
-------------------------------------|

OUTRO
-------------------------------------------------------------------------|
-9-9---7-7---5-5--------------9-9---7-7----------------------------------|
-9-9---7-7---6-6--------------9-9---7-7--------------------------------9-|
-9-9---7-7---7-7------2-2~~~--9-9---7-7---9-11-12--9-11-12~~~--9-11-12---|
------------------2h4----------------------------------------------------|
-------------------------------------------------------------------------|

-------------------------------------------------------------------------------------|
-9-9---7-7---5-5----------------9-9---7-7--------------------------------------------|
-9-9---7-7---6-6----------------9-9---7-7--------------------------------------------|
-9-9---7-7---7-7--------2-2~~~--9-9---7-7---9-11-12--9-11-12~~~--9-11-12--9-11-12~~~-|
------------------0h2-4--------------------------------------------------------------|
-------------------------------------------------------------------------------------|

--------------------------------------|
--------------------------------------|
------------------------------------9-|
-9-11-12--9-11-12--9-11-12--9-11-12---|
--------------------------------------|
--------------------------------------|

Thanks!  Comment and rate!
comments
print report bad tab
1 comment total.
0 reply
dodger916 wrote on August 18 2011, 04:29 pm

Great job! But I believe the chorus chords are open E, B (4th fr)open A. I believe the solos use the same progression.

I want to post or [tab]
guest
You may want to rate the tab now too:
select rating
Please do not post tabs as comments. Select "correction" instead!