Oops, an error
Loading. Please wait.

Just What I Needed Tab

version 2
version 2
119,524 views 37 this week
8 commentsread comments
1 2 3 4 5
accurate
x 18
add to favorites
launch autoscroll
font size
0
reset
how to read this tab
guitar tuner
Tab Pro tools
  • play this tab
  • loop segment
  • change instrument
  • show fretboard
  • metronome
×
Best way to learn
"Just What I Needed"
Autoscroll
slow
fast
+/-
esc
set tempo
stop
Contributor
Band - The Cars
Song - Just What I Needed

Tuning: Standard
Key:
/ - slide up 
\ - slide down
b - bend
r - rest
p - pull off

Intro:
     E

Verse:
E                B           C#m            G# 
I don't mind you coming here wasting all my time
E                           B       C#m                  G# 
'Cause when you're standing oh so near I kind of lose my mind
E                    B           C#m                    G# 
It's not the perfume that you wear it's not the ribbons in your hair
E                B         G#               A
I don't mind you coming here wasting all my time

Interlude:
  E      B         C#m        G#     E      B        C#m        A
e|----------------12-11-----------|----------------12-11--------------------------|
B|12-----12-----12-----14-12-13---|12-----12-----12-----14-12-----14-----12-----10|
G|----13------13------------------|----13------13------------13/14--12/13--10/11--|
D|--------------------------------|-----------------------------------------------|
A|--------------------------------|-----------------------------------------------|
E|--------------------------------|-----------------------------------------------|

Verse:
E                B         C#m                   G# 
I don't mind you hanging out and talking in your sleep
E                   B               C#m                 G# 
It's doesn't matter where you've been as long as it was deep yeah
E                 B       C#m                  G# 
Always knew you'd marry well you look so fancy I can tell
E                B         G#                    A
I don't mind you hanging out and talking in your sleep

Chorus:
A  B                A          C#m
    I guess you're just what I needed
             A        B          A          C#m 
(just what I needed),   I needed someone to feed
A  B                A          C#m
    I guess you're just what I needed
             A        B          A          C#m... 
 just what I needed,    I needed someone to please

Solo:
     C#m      E        B           C#m           G#
e|--------------------------------------------------------|
B|--------------------------------------------------------|
G|11b13-13-13-13r11-9-------------------------------------|
D|-------------------11b13r11-11p9-11b13r11-10h11-10------|
A|---------------------------------------------------9h11-|
E|--------------------------------------------------------|

  E       B            C#m         A
e|----------------------------------------------|
B|---------------------12b14r12-9-12b14-14r12-9-|
G|------9------11-11\9--------------------------|
D|9-9-11--11/13---------------------------------|
A|----------------------------------------------|
E|----------------------------------------------|

  E                 B          C#m       G#
e|-------------9---------------------------------------|
B|12b14r12-12----------------------------11b13-13r11-9-|
G|---------------11b13r11-11-9-------------------------|
D|-----------------------------11b13r11-9--------------|
A|-----------------------------------------------------|
E|-----------------------------------------------------|

  E    B        C#m    A
e|---9----------9-----11-----12-----14--15--16-|
B|7b9--9r7-5-----------------------------------|
G|----------6/9---9/11--11/13--13h14--14--15---|
D|---------------------------------------------|
A|---------------------------------------------|
E|---------------------------------------------|

Verse:
E                B           C#m            G# 
I don't mind you coming here wasting all my time, time
E                           B       C#m                  G# 
'Cause when you're standing oh so near I kind of lose my mind
E                    B           C#m                    G# 
It's not the perfume that you wear it's not the ribbons in your hair
E                B         G#               A
I don't mind you coming here wasting all my time

Chorus:
A  B                A          C#m
    I guess you're just what I needed
             A        B          A          C#m 
(just what I needed),   I needed someone to feed
A  B                A          C#m
    I guess you're just what I needed
             A        B          A          C#m... 
 just what I needed,    I needed someone to please
         C#m
e|-----------------|
B|9b11-11r9-7h9-7--|
G|---------------6-|
D|-----------------|
A|-----------------|
E|-----------------|

A  B                A          C#m
    I guess you're just what I needed
             A        B          A          C#m 
(just what I needed),   I needed someone to feed
A  B                A          C#m
    I guess you're just what I needed
             A        B          A          C#m... 
 just what I needed,    I needed someone to please (yeah yeah, so bleed me)

Outro:
  E     B    C#m    G# E     B    C#m  A
e|---------7----9-9/11----------7--------|
B|5-7/9-7-7--9-9-------5-7/9-7-7--9-9-5--|
G|-4--------------------4--------------6-|
D|---------------------------------------| repeat
A|---------------------------------------|
E|---------------------------------------|
comments
print report bad tab
8 comments total. Showing first comments.
0 reply
raph8r wrote on January 1 2005, 12:00 am

good tab

0 reply
ILoveMe1307 wrote on July 9 2005, 12:00 am

almost everything is right, but i think during the chorus instead of an A at the begging im pretty sure is an E

+2 reply
aron444 wrote on July 26 2005, 12:00 am

This tab is good but if you want the song completely tabbed out, check mine out. It should help you out.

I want to post or [tab]
guest
You may want to rate the tab now too:
select rating
Please do not post tabs as comments. Select "correction" instead!