Oops, an error
Loading. Please wait.

Just What I Needed Tab

version 4
version 4
20,014 views 6 this week
3 commentsread comments
1 2 3 4 5
accurate
x 9
add to favorites
launch autoscroll
font size
0
reset
how to read this tab
guitar tuner
Tab Pro tools
  • play this tab
  • loop segment
  • change instrument
  • show fretboard
  • metronome
×
Best way to learn
"Just What I Needed"
Autoscroll
slow
fast
+/-
esc
set tempo
stop
Difficulty
novice
This tab is super easy and sounds good because it's mostly power chords. This is my 
on ulitmate-guitar, so enjoy!     ~nik~

EADGBe

x- palm muted
h- hammer on
r- let ring
L- let off (play note, then release to get a second tone.)

Intro:

---------------        ---------------------|
---------------        ---------------------|
---------------  >4x   ----------------- ---|4x
-9-9-9-9-9-9--9        -9-9-9-9-9-9--9-9----|
-7-7-7-7-7-7--7        -7-7-7-7-7-7--7-7----|
---------------        ---------------------|
 x x x x x x  h         x x x x x x  h h
 1 & 2 & 3 &  4         1 & 2 & 3 &  4 &

Verse: (I don't mind you comming here...)

--------------------------------------------------------------------|
--------------------------------------------------------------------|
---------------------------------------------------------------- ---|3x
-9-9-9-9-9-9-9-9-----------------6-6-6-6-6-6-6-6--------------------|
-7-7-7-7-7-7-7-7-9-9-9-9-9-9-9-9-4-4-4-4-4-4-4-4-6-6-6-6-6-6-6-6----|
-----------------7-7-7-7-7-7-7-7-----------------4-4-4-4-4-4-4-4----|
 x x x x x x x x x x x x x x x x x x x x x x x x x x x x x x x x
 1 & 2 & 3 & 4 & 1 & 2 & 3 & 4 & 1 & 2 & 3 & 4 & 1 & 2 & 3 & 4 &

-----------------------------------------------------------------|
-----------------------------------------------------------------|
-----------------------------------------------------------------|
-9-9-9-9-9-9-9-9-------------------------------------------------|
-7-7-7-7-7-7-7-7-9-9-9-9-9-9-9-9-6-6-6-6-6-6-6-6-7-7-7-7-7-7-7-7-|
-----------------7-7-7-7-7-7-7-7-4-4-4-4-4-4-4-4-5-5-5-5-5-5-5-5-|
 h h h h h h h h h h h h h h h h h h h h h h h h h h h h h h h h
 1 & 2 & 3 & 4 & 1 & 2 & 3 & 4 & 1 & 2 & 3 & 4 & 1 & 2 & 3 & 4 &

Keyboard Solo:

---------------12-11-9---------------------------12-11-9------|
-12---9-12---9---------12-13-------12---9-12---9---------12---|
------------------------------------------------------------9-|
--------------------------------------------------------------|
--------------------------------------------------------------|
--------------------------------------------------------------|
 h      h              h  r        h                        h/r
 1    4 1    4 1  2  3 4  1        1    4 1    4 1  2  3 4  1 (hold 2,3,4)

Verse (except hammer on first note of ecery measure, and repeat first line  4 times 
of three, OR repeat three then play keyboard solo.)

Chorus:

--------------------------------------------|
--------------------------------------------|
--------------------------------------------|
-9---------------------9---------------- ---|2x
-7---9-----7-7---6-9-9-7---9-----7-7---6----|
-----7-----5-5---4-7-7-----7-----5-5---4----|
 h   h     h h   h h h h   h     h h   r
 1(2)&(3,4)& 1(2)& 3 4 1(2)&(3,4)& 1(2)&(3,4)

Guitar Solo (backround)

------------------------------------|
------------------------------------|
-------------------------------- ---|6x
-9-9-9-----------6-6-6--------------|
-7-7-7-9-9-9-9-9-4-4-4-6-6-6-6-6----|
-------7-7-7-7-7-------4-4-4-4-4----|

 1 & 2 & 3 & 4 & 1 & 2 & 3 & 4 &

Verse (same as the verse the second time except repeat four times, no key board solo option.)

Chorus 2x (total of 4)

Keyboard Outro:

-----------------9-11-------------------------|
-5-L-9-7----12-9-------5-L-9-7----12-9-5------|
-----------------------------------------6 ---|4x
----------------------------------------------|
----------------------------------------------|
----------------------------------------------|
   L                     L
 1 & 2 3(4) &  1 2 3(4)1 & 2 3(4) &  1 2 3
comments
print report bad tab
3 comments total.
0 reply
jaystradley wrote on July 6 2009, 03:51 pm

this is better than the other one, more clear.

0 reply
pc2520 wrote on September 10 2012, 10:15 am

in the chorus, the(Ab) --6-- should be (C#) --11--
--4-- --9---

0 reply
slaya771 wrote on February 16 2016, 08:45 pm

The intro riff includes the 9th fret on the G string, and the chorus has a lot of chords missing or out of order. Also, the solo is missing.

I want to post or [tab]
guest
You may want to rate the tab now too:
select rating
Please do not post tabs as comments. Select "correction" instead!