Oops, an error
Loading. Please wait.

Just What I Needed Tab

version 5
version 5
8,351 views 12 this week
1 commentread comment
1 2 3 4 5
accurate
x 3
add to favorites
launch autoscroll
font size
0
reset
how to read this tab
guitar tuner
Tab Pro tools
  • play this tab
  • loop segment
  • change instrument
  • show fretboard
  • metronome
×
Best way to learn
"Just What I Needed"
Autoscroll
slow
fast
+/-
esc
set tempo
stop
Difficulty
intermediate
Just What I Needed By The Cars
This Tab Is Perfect

.=Palm Mute
W= Bend Whole Step
/=slide
H=hammer on
P=Pull Off
R=release Bent Not

Intro
|-----------------------------------------------|
|--------9--------9--------9--------9-----------|
|--------9--------9--------9--------9-----------|
|-999999-9-999999-9-999999-9-999999-9-----------|
|-777777-7-777777-7-777777-7-777777-7-----------|
|--------0--------0--------0--------0-----------|
  ......   ......   ......   ......

|-----------------------------------------------|
|--------99--------99--------99--------99-------|
|--------99--------99--------99--------99-------|
|-999999-99-999999-99-999999-99-999999-99-------|
|-777777-77-777777-77-777777-77-777777-77-------|
|--------00--------00--------00--------00-------|
  ......    ......    ......    ......

Verses
|-----------------------------------------------|
|-----------------------------------------------|
|-99999999----------66666666--------------------|X3
|-99999999-99999999-66666666-66666666-----------|
|-77777777-99999999-44444444-66666666-----------|
|----------77777777----------44444444-----------|
  ........ ........ ........ ........             First Verse
   .......  .......  .......  .......             Second Verse
    ......   ......   ......   ......             Third Verse

Pre-Chorus
|-----------------------------------------------|
|-9-9-9-101010-9-9------------------------------|
|-9-9-9-9-9-9--9-9-88899988---------------------|
|-9-9-9-9-9-9--9-9-99999999-66666666-77777777---|
|-7-7-7-7-7-7--7-7-99999999-66666666-77777777---|
|------------------77777777-44444444-55555555---|

KeyBoard Bridge

|-----------------------------------------------|
|-----------------------------------------------|
|-99999999----------66666666--------------------|
|-99999999-99999999-66666666-66666666-----------|
|-77777777-99999999-44444444-66666666-----------|
|----------77777777----------44444444-----------|

|-----------------------------------------------|
|-----------------------------------------------|
|-99999999----------66666666--------------------|
|-99999999-99999999-66666666-77777777-----------|
|-77777777-99999999-44444444-77777777-----------|
|----------77777777----------55555555-----------|

Chorus
|-----------------------------------------------|
|-----------------------------------------------|
|-99-----6----99-----6--------------------------|
|-99-9-7-6-7--99-9-7-6--------------------------|X2
|-77-9-7-4-7--77-9-7-4--------------------------|
|-00-7-5---5--00-7-5----------------------------|

Guitar II Solo
|-----------------------------------------------|
|-----------------------------------------------|
|-99---6---99-6---------------------------------|
|-99-9-6-6-99-6-7-------------------------------|
|-77-9-4-6-77-4-7-------------------------------|X2
|----7---4------5-------------------------------|

Guitar I Solo
|-----------------------------------------------|
|-----------------------------------------------|
|-11W-11W-11W-11WR-9----------------------------|
|--------------------11-9-11WR-10H11P10---------|
|-----------------------------------------------|
|-----------------------------------------------|
                                    \/This Isn't Very Noticable  
|-----------------------------------------------|
|--------------------12WR-10-12W---12WR-10------|
|--------9-11WR-9-11----------------------------|
|-9-9-11----------------------------------------|
|-----------------------------------------------|
|-----------------------------------------------|
                                        \/This Isn't Very Noticable  
|-----------------------------------------------|
|-12WR-12-12-12W------------------12W---12WR-10-|
|----------------11WR-9-11-11WR-9---------------|
|-----------------------------------------------|
|-----------------------------------------------|
|-----------------------------------------------|

|----------------9/-11/-12/-14/-15/-16----------|
|-----12-9--------------------------------------|
|-11W------9-11-9/-11/-13/-14/-15/--16----------|
|-----------------------------------------------|
|-----------------------------------------------|
|-----------------------------------------------|

Keyboard Outro
|-----------------------------------------------|
|-----------------------------------------------|
|-99---6---99-6---------------------------------|
|-99-9-6-6-99-6-7-------------------------------|
|-77-9-4-6-77-4-7-------------------------------|X3
|----7---4------5-------------------------------|

|-----------------------------------------------|
|-----------------------------------------------|
|-99---6---99-6---------------------------------|
|-99-9-6-6-99-6---------------------------------|
|-77-9-4-6-77-4---------------------------------|
|----7---4--------------------------------------|

comments
We did not receive enough feedback on this tab! Please rate:
print report bad tab
1 2 3 4 5
1 comment total.
0 reply
ls311 wrote on April 15 2007, 04:32 pm

eh, this tab is a long way from being "perfect". there are 2 guitars for starters, but you did produce a tab that sounds like the song. a solid 4 stars from me.

I want to post or [tab]
guest
You may want to rate the tab now too:
select rating
Please do not post tabs as comments. Select "correction" instead!