Oops, an error
Loading. Please wait.

Magic Bass Tab

version 2
version 2

Whole song

Interactive

1,297 views 6 this week
no commentswrite comment
1 2 3 4 5
please rate
add to favorites
launch autoscroll
font size
0
reset
guitar tuner
Tab Pro tools
  • play this tab
  • loop segment
  • change instrument
  • show fretboard
  • metronome
×
Best way to learn
"Magic"
Autoscroll
slow
fast
+/-
esc
set tempo
stop
Contributor
Difficulty
novice
"MAGIC"
BY THE CARS
TABBED BY J.W. Mulkey


VERSE 1
G------------------|   X7
D----0--2----------|
A-0----------------|
E------------------|
Play this at the start of song

VERSE 2
G------------------|  X6
D----0--2----------|
A-0----------------|
E----------0-0-2-0-|
Play this at 00:40

                         CHANGE

G-------------------------------------------------------------------------|
D-4-4-4-4-4-4-4-4-0-0-0-0-0-0-0-0-2-2-2-2-2-2-2-2-4-4-4-4-4-4-4-4-4-4-4-4-|
A-------------------------------------------------------------------------|
E-------------------------------------------------------------------------|

G---------------------------------------------------------|
D-4-4-4-4-0-0-0-0-0-0-0-0-4-4-4-4-4-4-4-4-4-4-4-4-4-4-4-4-|
A---------------------------------------------------------|
E---------------------------------------------------------|
comments
We did not receive enough feedback on this tab! Please rate:
print report bad tab
1 2 3 4 5
I want to post or [tab]
guest
You may want to rate the tab now too:
select rating
Please do not post tabs as comments. Select "correction" instead!