Oops, an error
Loading. Please wait.

My Best Friends Girl Bass Tab

version 2
version 2

Whole song

Interactive

8,429 views 3 this week
no commentswrite comment
1 2 3 4 5
please rate
add to favorites
launch autoscroll
font size
0
reset
guitar tuner
Tab Pro tools
  • play this tab
  • loop segment
  • change instrument
  • show fretboard
  • metronome
×
Best way to learn
"My Best Friends Girl"
Autoscroll
slow
fast
+/-
esc
set tempo
stop
Difficulty
novice
dont start until "Here she comes again"


Verse
G-----------------------------------|
D--------------8-8-8-8-10-10-10-10--|
A-8-8-8-8--8-8----------------------|
E-----------------------------------|

Chorus
G----------------------|
D----------------------|
A-3-3-3-3--3-3-1-1-1-1-|
E----------------------|

and what I like to do is switch octaves during the second guitar solo which is like this

G-----------------------------|
D-----------------------------|
A-------------1-1-1-1-3-3-3-3-|
E-1-1-1-1--1-1----------------|

G-------------3-3-3-3-5-5-5-5-|
D-3-3-3-3--3-3----------------|
A-----------------------------|
E-----------------------------|
comments
We did not receive enough feedback on this tab! Please rate:
print report bad tab
1 2 3 4 5
I want to post or [tab]
guest
You may want to rate the tab now too:
select rating
Please do not post tabs as comments. Select "correction" instead!