Oops, an error
Loading. Please wait.

My Best Friends Girl Bass Tab

version 4
version 4

Whole song

Interactive

4,677 views 9 this week
no commentswrite comment
1 2 3 4 5
please rate
add to favorites
launch autoscroll
font size
0
reset
guitar tuner
Tab Pro tools
  • play this tab
  • loop segment
  • change instrument
  • show fretboard
  • metronome
×
Best way to learn
"My Best Friends Girl"
Autoscroll
slow
fast
+/-
esc
set tempo
stop
Contributor
Difficulty
novice
Cars - My Best Friend's Girl (key of E)
by wormark

Bass
Verse
   1  &  2  &  3  &  4  &
G|-------------------------|-------------------------|
D|-------------------------|-------------------------|
A|----------2-----4--2-----|-0--0--0--0--2--2--2--2--|
E|-0—2--4---------------4--|-------------------------|
or
   1  &  2  &  3    &  4  &
G|-------------4h6--4--------|-------------4--4--4--4--|
D|---------------------6-----|-7--7--7--7--------------|
A|-7--7--7--7-------------7--|-------------------------|
E|---------------------------|-------------------------|

Chorus
G|-----------------|
D|-----------------|
A|-0-0-0-0-2-2-2-2-|
E|-----------------|

or

Verse
  Q    Q      Q    E  E     E  E    E  E  E  E  E  E   
-------------------------|----------------------------|
-------------------------|-------------2--------0--1--|
--------------2----4--2--|--0--0--2g4-----2--2--------|
--0----3b----------------|----------------------------|
 
 Chorus
---------------------------|--------------------------|
--2--2--------2--2-----2s--|-----4--6-----4--4--2-----|
-----------0-----------0s--|--2--2--2--2--2--2--2--0--|
---------------------------|--------------------------|
 
Solo 1
  H         E  E   E  E    E  E  E  E   E  Q   Q   
------------9------9-----|---------------------------|
------------9------9-----|-------5-----\7--7--\5-----|
-------------------------|----4-----4--\6-----\4-----|
-------------------------|-5-----------\7-----\5-----|

Last Verse
---------------------------|---------------------------|
---------------------------|---7--7--7--7--9--9--9--9--|
---7--7--7--7--7--7--7--7--|---7--7--7--7--9--9--9--9--|
---7--7--7--7--7--7--7--7--|---------------------------| 

Summary
Intro x2
Intro x2 (with claps)
Verse x4 (with claps)
Pre-Chorus (x4) (drums in)
Chorus (x5) (bass in)

Verse x4
Pre-Chorus (x4)
Chorus (x5)

Solo (verse x5)
Verse x4
Pre-Chorus (x4)
Chorus (x5)

Outro (verse x8)


Lyrics
Verse
You're always dancing down the street
With your suede blue eyes
And every new boy that you meet
He doesn't know the real surprise

Pre-Chorus
(here she comes again)
When she's dancing neath the starry sky
Oo, she'll make you flip
(here she comes again)
When she's dancing neath the starry sky
I kinda like the way she dips

Chorus
She's my best friend's girl
She's my best friend's girl-irl
But she used to be mine

Verse
You've got your nuclear boots
And your drip dry glove
Oo when you bite your lip
Its some reaction to love, o-ove, o-ove

Pre-Chorus
(here she comes again)
When she's dancing 'neath the starry sky
Yeah, I think you'll flip
(here she comes again)
When she's dancing 'neath the starry sky
(here she comes again)
I kinda like the way, I like the way she dips

Chorus
'cause she's my best friend's girl
Well she's my best friend's girl-irl
And she used to be mine
She's so fine

Solo (versex7)
Verse
Just-a dancing down the street
With your suede blue eye-eyes
And every new boy that you meet
Doesn't know the real surprise

Pre-Chorus
(here she comes again)
When she's dancing 'neath the starry sky
(here she comes again)
Oh, she'll make you flip
(here she comes again)
When she's dancing neath the starry sky
(here she comes again)
I kinda like the way, I like the way she dips
Chorus
cause she's my best friend's girl, uh
She's my best friends' girl-irl-u-irl
She used to be mine
She so, fine

Coda (verse x8)
(my best friend's girlfriend)
Oh
(my best friend's girlfriend)
She used to be mine
(my best friend's girlfriend)
Yeah yeah
(my best friend's girlfriend)
Said she used to be mine
(my best friend's girlfriend)
Oh, yeah yeah yeah
(my best friend's girlfriend)
She used to be mine
(my best friend's girlfriend)


comments
We did not receive enough feedback on this tab! Please rate:
print report bad tab
1 2 3 4 5
I want to post or [tab]
guest
You may want to rate the tab now too:
select rating
Please do not post tabs as comments. Select "correction" instead!