Oops, an error
Loading. Please wait.

Tonight She Comes Tab

version 1
version 1

Solo

Interactive

4,922 views 6 this week
no commentswrite comment
1 2 3 4 5
excellent!
x 1
add to favorites
launch autoscroll
font size
0
reset
how to read this tab
guitar tuner
Tab Pro tools
  • play this tab
  • loop segment
  • change instrument
  • show fretboard
  • metronome
Autoscroll
slow
fast
+/-
esc
set tempo
stop
Contributor
Difficulty
intermediate
Enjoy =]


|--------------------|-------------------------------18---|
|--------------------|---------------------15-16--18------|
|---------2-5-5b-----|---------15----15-17----------------|
|--15/3-5-------5-5b-|------15----15----------------------|
|--------------------|------------------------------------|
|--------------------|------------------------------------|


|-------------------|----------------------------------------|
|-------------------|-15b-------8-10-11b---13----13p10---13--|
|--------2--5-5b----|-----10-12---------------10------10-----|
|----3-5--------5-5b|----------------------------------------|
|-------------------|----------------------------------------|
|-------------------|----------------------------------------|

|----------10-13-12-|-13-10-17-13-12-10------------------------------------|
|------15-----------|----------------------10b-------10-13----13b13b-------|
|12-9-5-------------|------------------3-7------10h12---------------12b12b-|
|-------------------|------------------------------------------------------|
|-------------------|------------------------------------------------------|
|-------------------|------------------------------------------------------|

|---8----------8---8|----8-10p8-8-12p8-8-13p10-10-15p12-15p12-15b--------|
|-----11p8-11b---11-|-11b------------------------------------------------|
|10b----------------|----------------------------------------------------|
|-------------------|----------------------------------------------------|
|-------------------|----------------------------------------------------|
|-------------------|----------------------------------------------------|
comments
We did not receive enough feedback on this tab! Please rate:
print report bad tab
1 2 3 4 5
I want to post or [tab]
guest
You may want to rate the tab now too:
select rating
Please do not post tabs as comments. Select "correction" instead!