Oops, an error
Loading. Please wait.

Church In The Wildwood intro tab

127 views 1 this week
no commentswrite comment
1 2 3 4 5
3 more votes to show rating
add to favorites
×
Save as Personal and add changes to this tab that will be seen only by you. Learn more ›
×
You can save this tab as Personal to edit and correct it or add notes. All changes will be seen only by you. Learn more »
launch autoscroll
font size
0
reset
how to read this tab
guitar tuner
edit
Autoscroll
slow
fast
+/-
esc
set tempo
stop
Author
Difficulty
https://www.youtube.com/watch?v=D8Ojam9JA7I

The original sounds in Bb - and the guitar is tuned one full tone lower
This tab is written for standard tuning
To play along with the original retune the guitar to  D - G - C - F - A - D
or alternatively change the pitch of the recording using software.
The first two beats of the first bar are slow, the second bar commences 2 secs in.
Maybelle Carter generally used a thumb pick and finger pick on the first finger. Thumb 
picking the  melody and strumming the top strings with the first finger with down and up
strokes.

https://www.youtube.com/watch?v=0iVz2yOqnME and https://www.youtube.com/watch?v=XE80Ed59uCY
show her playing wildwood flower and may help in understanding her fingerpicking style.

[Intro]
   C                                                        G7
e|----0-0-----0-0-0-|----0----0-|--0-0-0-----|---0----0-0-|---1----1-|
B|----1-1-----1-1-1-|----1----1-|--1-1-1-----|---1----1-1-|---0----0-|
G|----0-0-----0-0-0-|----0----0-|--0-0-0-----|---0----0-0-|---0----0-|
D|------------------|-----------|----------0-|-2----2-----|-0----0---|
A|--3---------------|-------0---|--------3---|------------|----------|
E|----------3-------|--3--------|-3----------|------------|----------|
    p       p          p    p     p      p p   p    p       p    p

                              C
e|---1--------|---1-1------|--0-0-0---0-0-0-|---0---0-|
B|---0--------|---0-0------|--1-1-1---1-1-1-|---1---1-|
G|---0--------|---0-0------|--0-0-0---0-0-0-|---0---0-|
D|------------|-0-----2--0-|--------2-------|---------|
A|-----2--3---|------------|-3--------------|-3---3---|
E|-3----------|------------|----------------|---------|
   p   p  p     p     p  p   p      p         p   p

   F                         C             
e|---1--------|---1-1------|---0-----0-0-|---0-------|
B|---1--------|---1-1------|---1-----1-1-|---1-------|
G|---2--------|---2-2------|---0-----0-0-|---0-------|
D|------------|------------|-------------|-----------|
A|-0-----0--2-|-3-----2--0-|-------3-----|------2--0-|
E|------------|------------|-3-----------|-3---------|
   p     p  p   p     p  p   p     p       p    p  p

    G7                        C
e|---1-1-1---1-|---1--------|---0---0-0-0-|---0---0-0-0-|
B|---0-0-0---0-|---0--------|---1---1-1-1-|---1---1-1-1-|
G|---0-0-0---0-|---0--------|---0---0-0-0-|---0---0-0-0-|
D|-------------|------------|-----2-------|-----2-------|
A|-------------|------0--2--|-3-----------|-3-----------|
E|-3-------3---|-3----------|-------------|-------------|
   p       p     p    p  p    p   p         p   p

            
            
Suggest correction
Creating personal tab
Creating personal tab
You can edit any tab online and save it as your Personal.

You can edit, replace or remove any tab part or add personal notes – all changes will be seen only by you.

Personal tabs can be accessed anytime from any device, even offline.
Learn more »
Give kudos to tab author, rate the tab!
1 2 3 4 5
comments
print report bad tab
guest
You may want to rate the tab now too:
select rating
Wanna post a correction for this tab? Suggest correction