Oops, an error
Loading. Please wait.

Jimmy Brown Tab

3,621 views 1 this week
1 commentread comment
1 2 3 4 5
accurate
x 2
add to favorites
launch autoscroll
font size
0
reset
how to read this tab
guitar tuner
Tab Pro tools
  • play this tab
  • loop segment
  • change instrument
  • show fretboard
  • metronome
Autoscroll
slow
fast
+/-
esc
set tempo
stop
Contributor
E---0---0-0----0-0-0-0---0---------3-1-1-1---1--1-1-1-1-1-1|
B---1---1------1-1-1-----1---------0-0-0-0---0-------------|
G---0---0--2p0-0-0-0-----0---------0---------0-------------|
D-----2--------------------2h3-2-0-----------------0-3-2-0-|
A-3--------------------3-----------------------2-3---------|
E------------------------------------------3---------------|

E---1-1----------------------------------------------------|
B---0------------------------------------------------------|
G---0------------------------------------------------------|
D----------------------------------------------------------|
A-------0-2-3----------------------------------------------|
E-3--------------------------------------------------------|

Repeat until you are sick, and that's the song.
comments
We did not receive enough feedback on this tab! Please rate:
print report bad tab
1 2 3 4 5
1 comment total.
0 reply
rockrules92 wrote on June 14 2007, 07:02 pm

---------------------------------------
---------------------------------------
------o-2------------------------------
-----2----2-2-3-2--------3-2-o------o--
-o-3--------------2----2-------2--2---3
--------------------3-3----------3-----

thats how my grandpa told me to play it, but that is with a second guitar stuming chords.

I want to post or [tab]
guest
You may want to rate the tab now too:
select rating
Please do not post tabs as comments. Select "correction" instead!