Oops, an error
Loading. Please wait.

40Oz Casualtie Tab

1,487 views 1 this week
1 commentread comment
1 2 3 4 5
x 3
add to favorites
×
Save as Personal and add changes to this tab that will be seen only by you. Learn more ›
launch autoscroll
font size
0
reset
how to read this tab
guitar tuner
Autoscroll
slow
fast
+/-
esc
set tempo
stop
Author
Bad ass fuckin song
(>)=Pickslide
Intro
E -----------------------|
B -----------------------|
G --66-55----------------|
D --66-55-55-77----------|
A --44-77-55-77----------|
E --------77-99----------| Do it 5 times then go into:

E --------------------------------|
B --------------------------------|
G --77----------66-77-------------|
D --77-77-9-7---66-77-7-7-7-------|
A --55-77-9-7---44-55-7-7-7-------|
E -----55-7-5---------5-5-5-------|Do that whole thing 4 times do the, then do it all 
again, then the chorus (40 oz 40 oz 40 oz Casualties!) is:

E --------------------------------|
B --------------------------------|
G --666--999-11111-12-11-12-11----|
D --666--999-11111-12-11-12-11----|
A --444--777-9-9-9-10-9--10-9-----|
E --------------------------------| Do this 6 times then go into:

E >--------------------------------|
B >--------------------------------|
G >--77----------66-77-------------|
D >--77-77-9-7---66-77-7-7-7-------|
A >--55-77-9-7---44-55-7-7-7-------|
E >-----55-7-5---------5-5-5-------|, Do this 2 times then go into the intro again and 
the end just play it as many times as you want as fast as you can.  Bad ass song.
Suggest correction
Give kudos to tab author, rate the tab!
1 2 3 4 5
comments
print report bad tab
1 comment total.
0 reply
Buck_fAM9087 10 Jan 04, 2006 07:55 AM

Hey good job on this tab! The only two thing I would change would be the extra octave throughout the song as in....

G|-6--Change--------------|
D|-6--------That------6---|
A|-4------------To----4---|


...and change the chorus to...

D|------777--999--10-9-7--|
A|-999--555--777---8-7-5--|
E|-777--------------------|

...Besides those I think you did very well!!

guest
You may want to rate the tab now too:
select rating
Wanna post a correction for this tab? Suggest correction