Oops, an error
Loading. Please wait.

Botas Bass Tab

100 views 1 this week
no commentswrite comment
1 2 3 4 5
3 more votes to show rating
add to favorites
launch autoscroll
font size
0
reset
guitar tuner
×
Best way to learn
"Botas"
Autoscroll
slow
fast
+/-
esc
set tempo
stop
Ps...
aki una rola chingosisima
jajajajajaja
ps........
la neta esta cabrona
pero ya agrralandola bn
se hace mano
asi que se las dejo

Verso

G|---------------------------------------------|
D|--------------5--------------9-7-5---5-------|
A|-7777777777-5---7777-7777777-------5---7777--|
E|---------------------------------------------|
                                                   X2
G|------7-99-7-----------------------------------|
D|----9--------9-7---5-------------------5-------|
A|-77--------------5---7777-7777777777-5---7777--|
E|-----------------------------------------------|

Coro:
G|----------------------------------------------|
D|-----------------5-7-5---------------7-5------|
A|-----------7-5-7-----------------7-5-----7-5--| X2
E|-3333-7777-------------3333-7777--------------|

Pre-Verso
G|---------------------------------------------------------
D|---------------------------------------------------------
A|--5--3-3-3-3-3-3-3-3-3-3-3-3-3-3---2--2----2--3----5--5--
E|---------------------------------------------------------

G|--5--5-5-5-5-5-5-5-5-5-5-5-5-5-5-|--4----5---7------------
D|---------------------------------|---------------5--4--0--
A|---------------------------------|------------------------
E|---------------------------------|------------------------

Verso

G|---------------------------------------------|
D|--------------5--------------9-7-5---5-------|
A|-7777777777-5---7777-7777777-------5---7777--|
E|---------------------------------------------|
                                                   X2
G|------7-99-7-----------------------------------|
D|----9--------9-7---5-------------------5-------|
A|-77--------------5---7777-7777777777-5---7777--|
E|-----------------------------------------------|

Coro:
G|----------------------------------------------|
D|-----------------5-7-5---------------7-5------|
A|-----------7-5-7-----------------7-5-----7-5--| X2
E|-3333-7777-------------3333-7777--------------|

Pre-Verso
G|---------------------------------------------------------
D|---------------------------------------------------------
A|--5--3-3-3-3-3-3-3-3-3-3-3-3-3-3---2--2----2--3----5--5--
E|---------------------------------------------------------

G|--5--5-5-5-5-5-5-5-5-5-5-5-5-5-5-|--4----5---7------------
D|---------------------------------|---------------5--4--0--
A|---------------------------------|------------------------
E|---------------------------------|------------------------

Verso

G|---------------------------------------------|
D|--------------5--------------9-7-5---5-------|
A|-7777777777-5---7777-7777777-------5---7777--|
E|---------------------------------------------|
                                                   X2
G|------7-99-7-----------------------------------|
D|----9--------9-7---5-------------------5-------|
A|-77--------------5---7777-7777777777-5---7777--|
E|-----------------------------------------------|

Coro:
G|----------------------------------------------|
D|-----------------5-7-5---------------7-5------|
A|-----------7-5-7-----------------7-5-----7-5--| X2
E|-3333-7777-------------3333-7777--------------|

Pre-Verso
G|---------------------------------------------------------
D|---------------------------------------------------------
A|--5--3-3-3-3-3-3-3-3-3-3-3-3-3-3---2--2----2--3----5--5--
E|---------------------------------------------------------

G|--5--5-5-5-5-5-5-5-5-5-5-5-5-5-5-|--4----5---7------------
D|---------------------------------|---------------5--4--0--
A|---------------------------------|------------------------
E|---------------------------------|------------------------

Puente
G|----------------------------------|-------------------------|
D|----------------------------------|------5------------------|x2
A|---7--7-7-7-7-7-7-7-7-7-7-7-7-7-7-|--5-------7----7--7-7-7--|
E|----------------------------------|-------------------------|

G|--------------------------------|--------------------------------|
D|--------------------------------|--------------------------------|
A|--7--7-7-7-7-7-7-7--7-7-7-7-7-7-|--7--7-7-7-7-7-7-7--7-7-7-7-7-7-|
E|--------------------------------|--------------------------------|

G|--------------------------|--------------------------|
D|--------------------------|--------------------------|
A|--7--5-----5--7--5-----5--|--7--5-----0--------------|
E|--------7-----------7-----|--------7-----3--2--0--5--|

Adorno (1:38)
G|---------------------------|-----------------------------|
D|---------------------------|----------------9--7---------|
A|------------------------5--|--7--7--7-7-7-7-------10--7--|
E|---7--7-7-7-7---6---5------|-----------------------------|

G|--------------------------|-----------7--9--7---------|
D|--------------------------|--------9-----------9--7---|
A|-----------------------5--|--7--7---------------------|
E|--7--7-7-7-7---6---5------|---------------------------|

Pre-Verso
G|---------------------------------------------------------
D|---------------------------------------------------------
A|--5--3-3-3-3-3-3-3-3-3-3-3-3-3-3---2--2----2--3----5--5--
E|---------------------------------------------------------

G|--5--5-5-5-5-5-5-5-5-5-5-5-5-5-5-|--4----5---7------------
D|---------------------------------|---------------5--4--0--
A|---------------------------------|------------------------
E|---------------------------------|------------------------

Verso

G|---------------------------------------------|
D|--------------5--------------9-7-5---5-------|
A|-7777777777-5---7777-7777777-------5---7777--|
E|---------------------------------------------|
                                                   X2
G|------7-99-7-----------------------------------|
D|----9--------9-7---5-------------------5-------|
A|-77--------------5---7777-7777777777-5---7777--|
E|-----------------------------------------------|

Coro:
G|----------------------------------------------|
D|-----------------5-7-5---------------7-5------|
A|-----------7-5-7-----------------7-5-----7-5--| X2
E|-3333-7777-------------3333-7777--------------|

Pre-Verso
G|---------------------------------------------------------
D|---------------------------------------------------------
A|--5--3-3-3-3-3-3-3-3-3-3-3-3-3-3---2--2----2--3----5--5--
E|---------------------------------------------------------

G|--5--5-5-5-5-5-5-5-5-5-5-5-5-5-5-|--4----5---7------------
D|---------------------------------|---------------5--4--0--
A|---------------------------------|------------------------
E|---------------------------------|------------------------
Suggest correction
Give kudos to tab author, rate the tab!
1 2 3 4 5
comments
print report bad tab
guest
You may want to rate the tab now too:
select rating
Wanna post a correction for this tab? Suggest correction