Oops, an error
Loading. Please wait.
70 views 1 this week
no commentswrite comment
1 2 3 4 5
3 more votes to show rating
add to favorites
launch autoscroll
font size
0
reset
how to read this tab
guitar tuner
Autoscroll
slow
fast
+/-
esc
set tempo
stop
Help us to improve Ultimate-Guitar.com Take our survey!
×
Gente les dejo otro tema de los casualties!
Que lo disfruten!


Intro: MI5 - RE5 - SOL5 - MI5 x4

     MI5  RE5  SOL5
E||-----------------||
B||-----------------||
G||--9----7----12---||
D||--9----7----12---||
A||--7----5----10---||
E||-----------------||

MI5                       RE5 SOL5 MI5
Esta es la voz del pobre sin futuro,
MI5                       RE5 SOL5 MI5
donde a la policía no le importa si te matan.
MI5                       RE5 SOL5 MI5
Donde no hay trabajo para el hombre humilde,
MI5                       RE5 SOL5 MI5
rebelde despierta y escucha el sonido.

    SOL6  SI6
E||-----------||
B||-----------||
G||-----------||
D||--5----9---||
A||--5----9---||
E||--3----7---||

SOL6    SI6             MI5 RE5  MI5
BOTAS HUMILDES - SIEMPRE AL FRENTE
SOL6    SI6             MI5 RE5  MI5
BOTAS DE POBRE - SIEMPRE AL FRENTE

    DO6  SI6  RE6
E||---------------||
B||---------------||
G||---------------||
D||--10---9---12--||
A||--10---9---12--||
E||--8----7---10--||


DO6 SI6  RE6

DO6

E||-----------------------------||
B||-----------------------------||
G||-----------------------------||
D||--4--5--7----5--4------------||
A||-----------------------------||
E||-----------------------------||

Esta es mi calle, no somos muy bonitos
Donde el joven se pierde haciendo muchas drogas.
Haciendo lo mismo, aburrido mas y mas
Rebelde despierta y emipieza a gritar

BOTAS HUMILDES - SIEMPRE AL FRENTE

BOTAS DE POBRE - SIEMPRE AL FRENTE

Las botas que llevo son fuertes y de trabajo
Vivo en lugares sin futuro o esperanza
He sido abusado por demasiado tiempo
Botas de pobres empieza a gritar

BOTAS HUMILDES - SIEMPRE AL FRENTE

BOTAS DE POBRE - SIEMPRE AL FRENTE

    LA58º  SI58º
E||---------------||
B||---------------||
G||--14----16-----||
D||--14----16-----||
A||--12----14-----||
E||---------------||


MI5 - RE5 - SOL5 - MI5
MI5 - RE5 - SOL5 - MI5
Vamos!
MI5 - SOL5 - LA58º
MI5 - LA58º - SI58º
Adelante!

     LA6
E||---------||
B||---------||
G||---------||
D||---7-----||
A||---7-----||
E||---5-----||

SI6  LA6  SOL6  RE5  MI5
Casualties Army! nueva voz de hoy dia
SI6  LA6  SOL6  RE5  MI5
Generación de botas, abre tu boca
SI6  LA6  SOL6  RE5  MI5
Abandonado por los empresarios
SI6  LA6  SOL6  RE5  MI5
Casualties Army somos jovenes rebeldes

DO6 SI6  RE6

DO6

E||-----------------------------||
B||-----------------------------||
G||-----------------------------||
D||--4--5--7----5--4------------||
A||-----------------------------||
E||-----------------------------||

Me enseñaron a ser duro para sobrevivir
Si yo no te gusto largate de aqui
Este es un llamado a los rebeldes do hoy dia
A unirse, ser duro y ser escuchado

BOTAS HUMILDES - SIEMPRE AL FRENTE

BOTAS DE POBRE - SIEMPRE AL FRENTE

- En la linea del frente -

El tema termina en MI5!

SUBIDO POR MATIAS TOSCANO.

Punk musica del pueblo también lo subi yo!

y les deje este correo maty_punx@

ese no lo uso mas!

si tienen algunas dudas les dejo mi nuevo correo

matiastoscano94@
Suggest correction
Give kudos to tab author, rate the tab!
1 2 3 4 5
comments
print report bad tab
guest
You may want to rate the tab now too:
select rating
Wanna post a correction for this tab? Suggest correction