Oops, an error
Loading. Please wait.

Clase Criminal Tab

86 views 3 this week
no commentswrite comment
1 2 3 4 5
3 more votes to show rating
add to favorites
launch autoscroll
font size
0
reset
how to read this tab
guitar tuner
Autoscroll
slow
fast
+/-
esc
set tempo
stop
Help us to improve Ultimate-Guitar.com Take our survey!
×
Intro:
e|----------------------------------------------------------|
B|----------------------------------------------------------|
G|--------------12-1212-12-1212-12--9-99-9-99-9-------------|
D|-9-99-9-99-9--12-1212-12-1212-12--9-99-9-99-9-9-99-9-99-9-|X5
A|-9-99-9-99-9--10-1010-10-1010-10--7-77-7-77-7-9-99-9-99-9-|
E|-7-77-7-77-7------..------..--------..---..---7-77-7-77-7-|
pm   ..  ..                                 ..  ..

Verso:
e|-----------------------------------------|
B|-----------------------------------------|
G|-----------12-10-9-99--9/7/9-------------| X2
D|-9/7/9-99--12-10-9-99--9/7/9--9-99-99----|
A|-9/7/9-99--10/-9/7-77--7/5/7--9-99-99----|
E|-7/5/7-77---------------------7-77-77----|


Coro:
e|------------------------------------|
B|------------------------------------|
G|-121212-7-7-999999-----7-7----------|
D|-121212-7-7-999999-999-7-7-999999---| X2
A|-101010-5-5-777777-999-5-5-999999---|
E|-------------------777-----777777---|


Puente I:
e|-----------------------------------------|
B|-----------------------------------------|
G|-----------12-10-9-99--9/7/9-------------|
D|-9/7/9-99--12-10-9-99--9/7/9--9-99-99----| x2
A|-9/7/9-99--10/-9/7-77--7/5/7--9-99-99----|
E|-7/5/7-77---------------------7-77-77----|


VERSO: X2

CORO: X2

PUENTE I: X2

VERSO: X2

CORO: X2

PUENTE I: X2 ("Mientras se canta el coro por segudna vez")

Solo: (f=full)
e|----------------------------------------7-5-55-5-7-----9-8-7-77-7f77f|
B|--------------------------------------7-----------7-77----------0-00-|
G|---------12-11-9-99-9/7/9-99-7-6-4-44--------------------------------|
D|9/7/9-99----------------------------------------------------|
A|---------------------------------------------------------------------|
E|---------------------------------------------------------------------|

VERSO: X2

CORO: X2

Puente II:
e|-----------------------------------|
B|-----------------------------------|
G|---------1212121212---99999--------|
D|-99999---1212121212---99999--99999-| X4
A|-99999---1010101010---77777--99999-|
E|-77777-----------------------77777-|

CORO: X2

FINAL:
e|--------|
B|--------|
G|--------|
D|-99999-|
A|-99999-|
E|-77777-|
Suggest correction
Give kudos to tab author, rate the tab!
1 2 3 4 5
comments
print report bad tab
guest
You may want to rate the tab now too:
select rating
Wanna post a correction for this tab? Suggest correction