Oops, an error
Loading. Please wait.

Futuro Destruido Tab

106 views 1 this week
no commentswrite comment
1 2 3 4 5
3 more votes to show rating
add to favorites
launch autoscroll
font size
0
reset
how to read this tab
guitar tuner
Autoscroll
slow
fast
+/-
esc
set tempo
stop
Help us to improve Ultimate-Guitar.com Take our survey!
×
~  = Dejar sonar
PM = Palm Mute (Apagar el sonido con la palma de la mano)
 / = Deslizar

Intro x1
e|---------|
B|---------|
G|-777-----|
D|-777-777-|
A|-555-777-|
E|-----555-|

Verso x6
e|---------------------------------------------------|
B|---------------------------------------------------|
G|-11-11-11-11-11-11-11-11----------99999999---------|
DEFD|-11-11-11-11-11-11-11-11-77777777-99999999-4-44-44-|/DEF
DEFA|--9--9--9--9--9--9--9--9-77777777-77777777-4-44-44-|/DEF
E|-------------------------55555555----------2-22-22-|

Coro x2
e|---------------------------------------------|
B|---------------------------------------------|
G|-777777----------------777777--------9-99-99-|
DEFD|-777777-777777-2-22-22-777777-777777-9-99-99-|/DEF
DEFA|-555555-777777-2-22-22-555555-777777-7-77-77-|/DEF
E|--------555555-0-00-00--------555555---------|

VERSO: x4
e|---------------------------------------------------|
B|---------------------------------------------------|
G|-11-11-11-11-11-11-11-11----------99999999---------|
DEFD|-11-11-11-11-11-11-11-11-77777777-99999999-4-44-44-|/DEF
DEFA|--9--9--9--9--9--9--9--9-77777777-77777777-4-44-44-|/DEF
E|-------------------------55555555----------2-22-22-|

CORO: x2
e|---------------------------------------------|
B|---------------------------------------------|
G|-777777----------------777777--------9-99-99-|
DEFD|-777777-777777-2-22-22-777777-777777-9-99-99-|/DEF
DEFA|-555555-777777-2-22-22-555555-777777-7-77-77-|/DEF
E|--------555555-0-00-00--------555555---------|

 SOLO DE BAJO
G|--------------------------------------------------------|
D|--------------------------------------------------------|
A|-999999------56777777------------------567777-6567-9999-|
E|-------555555--------222222-22222-55555-----------------|


PUENTE:x1                     PUENTE PARTE 2
e|--------------------------| e|--------------------------------|
B|--------------------------| B|--------------------------------|
G|-11~----------9~----------| G|-11~----------9~-14-13-11-9-/11-|
D|-11~----7~----9~----4~----| D|-11~----7~----9~-14-13-11-9-/11-|
A|--9~----7~----7~----4~----| A|--9~----7~----7~-12-11--9-7-/-9-|
E|--------5~----------2~----| E|--------5~----------------------|
"En las noticias del día..."

PUENTE 3: x1
e|----------------------------------------------------|
B|----------------------------------------------------|
G|-11-11-11-11-11-11-11-11----------99999999----------|
DEFD|-11-11-11-11-11-11-11-11-77777777-99999999-44444444-|/DEF
DEFA|--9--9--9--9--9--9--9--9-77777777-77777777-44444444-|/DEF
E|-------------------------55555555----------22222222-|
   |--------------------------PM---------------------|

RIFF: x1
e|------------------------------------------------------------|
B|------------------------------------------------------------|
G|-11-11-11-11-11-11-11-11----------99999999--14-13-11-9-/-11-|
DEFD|-11-11-11-11-11-11-11-11-77777777-99999999--14-13-11-9-/-11-|/DEF
DEFA|--9--9--9--9--9--9--9--9-77777777-77777777--12-11--9-7-/--9-|/DEF
E|-------------------------55555555---------------------------|
   |--------------------------PM----------------------|

CORO: x2
e|---------------------------------------------|
B|---------------------------------------------|
G|-777777----------------777777--------9-99-99-|
DEFD|-777777-777777-2-22-22-777777-777777-9-99-99-|/DEF
DEFA|-555555-777777-2-22-22-555555-777777-7-77-77-|/DEF
E|--------555555-0-00-00--------555555---------|

VERSO: x4
e|---------------------------------------------------|
B|---------------------------------------------------|
G|-11-11-11-11-11-11-11-11----------99999999---------|
DEFD|-11-11-11-11-11-11-11-11-77777777-99999999-4-44-44-|/DEF
DEFA|--9--9--9--9--9--9--9--9-77777777-77777777-4-44-44-|/DEF
E|-------------------------55555555----------2-22-22-|

INTERLUDIO: x1
e|-------------|
B|-------------|
G|-9999--------|
D|-9999-7777-4-|
A|-7777-7777-4-|
E|------5555-2-|
"El futuro esta destruido..."

Pick Slide

CORO: x2
e|---------------------------------------------|
B|---------------------------------------------|
G|-777777----------------777777--------9-99-99-|
DEFD|-777777-777777-2-22-22-777777-777777-9-99-99-|/DEF
DEFA|-555555-777777-2-22-22-555555-777777-7-77-77-|/DEF
E|--------555555-0-00-00--------555555---------|


FINAL x1
e|----------------------------|
B|----------------------------|
G|-777-----444-----777-----11-|
D|-777-777-444-444-777-777-11-|
A|-555-777-222-444-555-777--9-|
E|-----555-----222-----555----|
Suggest correction
Give kudos to tab author, rate the tab!
1 2 3 4 5
comments
print report bad tab
guest
You may want to rate the tab now too:
select rating
Wanna post a correction for this tab? Suggest correction