Oops, an error
Loading. Please wait.

Made In Nyc Tab

version 1
version 1

Intro

Whole song

Interactive

1,816 views 1 this week
3 commentsread comments
1 2 3 4 5
x 3
add to favorites
launch autoscroll
font size
0
reset
how to read this tab
guitar tuner
×
Best way to learn
"Made In Nyc"
Autoscroll
slow
fast
+/-
esc
set tempo
stop
/---------------------------------------------------------------|
/--7-0-7-9-0-9-7-0-7-12-11-9------------------------------------| x2
/---------------------------------------------------------------|
/---------------------------------------------------------------|
/---------------------------------------------------------------|
/---------------------------------------------------------------|

/---------------------------------------------------------------|
/--7-7-7-7-7-7-7---------------7-7-7-7-7-7-7-9-9----------------|
/----------------9-9-9-9-9-9-9----------------9-9---------------|
/---------------------------------------------------------------|
/---------------------------------------------------------------|
/---------------------------------------------------------------|

reapeat the last verse until the second part of the song
Suggest correction
Give kudos to tab author, rate the tab!
1 2 3 4 5
comments
print report bad tab
3 comments total.
0 reply
ourtime2shine12 10 Mar 24, 2005 07:00 PM

I was just about to put the tab for this intro on the site then i saw this one it is fing dead on great job on the dude who tabbed this

0 reply
Maartenwuyts 325 Feb 02, 2008 12:14 AM

|-2---2--4-0-4--2--2--7-6-4
|---0------------0---------
|--------------------------
|--------------------------

|--------------------------
|--------------------------

|-----------------------------1-0-1-0

|-7-7-7-7-7-7-7-5-5-5-5-5-5-5-0-0-0-0
|-4-4-4-4-4-4-4-4-4-4-4-4-4-4--------
|------------------------------------

|------------------------------------
|------------------------------------

0 reply
replaceits 133 Mar 23, 2010 10:30 AM

|-2--2-2-2-2-2-2-2-0--0-0-0-0-0-0-0-2--2-2-2-2-2-2-2-4-0-4-0
|-0--0-0-0-0-0-0-0-0--0-0-0-0-0-0-0-0--0-0-0-0-0-0-0-0-0-0-0
|-----------------------------------------------------------
|-----------------------------------------------------------
|-----------------------------------------------------------
|-----------------------------------------------------------

thats the right way to play the first verse

guest
You may want to rate the tab now too:
select rating
Wanna post a correction for this tab? Suggest correction