Oops, an error
Loading. Please wait.

Made In Nyc solo tab

version 1
version 1

Solo

Whole song

Interactive

979 views 1 this week
2 commentsread comments
1 2 3 4 5
2 more votes to show rating
add to favorites
×
Save as Personal and add changes to this tab that will be seen only by you. Learn more ›
×
You can save this tab as Personal to edit and correct it or add notes. All changes will be seen only by you. Learn more »
launch autoscroll
font size
0
reset
how to read this tab
guitar tuner
edit
Autoscroll
slow
fast
+/-
esc
set tempo
stop
 Okay, this is the solo of the casualties- made in N.Y.C. It's a little of 
the chorus too. Enjoy. Go to: www.thecasualties.com for stuff.

 |-2---2--4---4--2--2--0-7-6-4
 |---0------0-----0-----------
 |----------------------------
 |----------------------------
 |----------------------------
 |----------------------------

 |-2-2-2-2-2-2-2-0-0-0-0-0-0-0-4-2-4-2
 |------------------------------------
 |------------------------------------
 |------------------------------------
 |------------------------------------
 |------------------------------------

            
            
Suggest correction
Creating personal tab
Creating personal tab
You can edit any tab online and save it as your Personal.

You can edit, replace or remove any tab part or add personal notes – all changes will be seen only by you.

Personal tabs can be accessed anytime from any device, even offline.
Learn more »
Give kudos to tab author, rate the tab!
1 2 3 4 5
comments
print report bad tab
2 comments total.
0 reply
Maartenwuyts 325 Feb 02, 2008 12:13 AM

|-2---2--4-0-4--2--2--7-6-4
|---0------------0---------
|--------------------------
|--------------------------

|--------------------------
|--------------------------

|-----------------------------1-0-1-0

|-7-7-7-7-7-7-7-5-5-5-5-5-5-5-0-0-0-0
|-4-4-4-4-4-4-4-4-4-4-4-4-4-4--------
|------------------------------------

|------------------------------------
|------------------------------------

0 reply
replaceits 133 Mar 23, 2010 10:24 AM

first off its a intro and its wrong (1 star)

guest
Wanna post a correction for this tab? Suggest correction