Oops, an error
Loading. Please wait.

Made In Nyc Tab

version 2
version 2

Whole song

Interactive

5,944 views 3 this week
4 commentsread comments
1 2 3 4 5
x 8
add to favorites
×
Save as Personal and add changes to this tab that will be seen only by you. Learn more ›
×
You can save this tab as Personal to edit and correct it or add notes. All changes will be seen only by you. Learn more »
save as personal
new!
launch autoscroll
font size
0
reset
how to read this tab
guitar tuner
Autoscroll
slow
fast
+/-
esc
set tempo
stop
Author
-----------------------------------------------------------------
MADE IN N.Y.C. - The Casualties
-----------------------------------------------------------------
Tabbed by: DumbKids
Album: Die Hards
Tuning: Standard

Intro 1:
e|--------0---------0-7-6-4|
B|7-0-7-9---9-7-0-7--------|
G|-------------------------|
D|-------------------------|
A|-------------------------|
E|-------------------------|

Intro 2:
e|2-222222-0-000000-2-222222-4-0-4-0|
B|0-000000-0-000000-0-000000-0-0-0-0|
G|----------------------------------|
D|----------------------------------|
A|----------------------------------|
E|----------------------------------|

Verse:
e|------------------------------------|
B|------------------------------------|
G|---------9-9-9999----------8/99-8/99|
D|9-9-9999-9-9-9999-9-9-9999-8/99-8/99|
A|9-9-9999-7-7-7777-9-9-9999-6/77-6/77|
E|7-7-7777----------7-7-7777----------|

e|--------------------------------------------|
B|--------------------------------------------|
G|---------9-9-9999-11-1111111111111111-9-8---|
D|9-9-9999-9-9-9999-11-1111111111111111-9-8-11|
A|9-9-9999-7-7-7777--9--9-9-9-9-9-9-9-9-7-6-11|
E|7-7-7777-----------------------------------9|

Chorus:
e|------------------------------------|
B|------------------------------------|
G|---------9-9-9999----------8/99-8/99|
D|9-9-9999-9-9-9999-9-9-9999-8/99-8/99|
A|9-9-9999-7-7-7777-9-9-9999-6/77-6/77|
E|7-7-7777----------7-7-7777----------|

e|-----------------------------------------------|
B|-----------------------------------------------|
G|---------9-9-9999----------------11-11-11111111|
D|9-9-9999-9-9-9999-12-12-12121212-11-11-11111111|
A|9-9-9999-7-7-7777-12-12-12121212--9--9--9-9-9-9|
E|7-7-7777----------10-10-10101010---------------|

Ending:
e|---
B|---
G|---
D|-9-
A|-9-
E|-7-

Fast Part:
e|---------------------------------------------|
B|---------------------------------------------|
G|9----9-------------9----9----1111111111111111|x2
D|9-99-9-99-77777777-9-99-9-99-1111111111111111|
A|7-99-7-99-77777777-7-99-7-99--9-9-9-9-9-9-9-9|
E|--77---77-55555555---77---77-----------------|

e|--------------------------------------------------|
B|--------------------------------------------------|
G|-----9-1111------11-99------9999----------11111111|x2
D|9999-9-1111-9999-11-99-9999-9999-12121212-11111111|
A|9999-7--9-9-9999--9-77-9999-7777-12121212--9-9-9-9|
E|7777--------7777-------7777------10101010---------|

Order:
Intro 1 x2
Intro 2 x8
Verse x1
Chorus x1
Verse x1
Chorus x1
Ending x1
Fast Part x2
Ending x1
Suggest correction
comments
print report bad tab
4 comments total. Showing first comments.
0 reply
LarXen90 130 Jun 05, 2007 08:09 AM

e|--------------------------------------------------|
B|--------------------------------------------------|
G|-----9-1111------11-99------9999----------11111111|x2
D|9999-9-1111-9999-11-99-9999-9999-12121212-11111111|
A|9999-7--9-9-9999--9-77-9999-7777-12121212--9-9-9-9|
E|7777--------7777-------7777------10101010---------|

----------
----------
----------
in my opinion in this part it's not -12121212-
-12121212-
-10101010-
------
------
------
but is -9999-
-7777-
-7777-

and the second time of the 1st intro is so

e|--------0----------7-6-4-|
B|7-0-7-9---9-7-0-7--------|
G|-------------------------|
D|-------------------------|
A|-------------------------|
E|-------------------------|

and not so

e|--------0---------0-7-6-4|
B|7-0-7-9---9-7-0-7--------|
G|-------------------------|
D|-------------------------|
A|-------------------------|
E|-------------------------|

-1 reply
LarXen90 130 Jun 05, 2007 08:16 AM

*sorry i correct the 1st part of my comment:
i think that so it's not right
\/
e|--------------------------------------------------|
B|--------------------------------------------------|
G|-----9-1111------11-99------9999----------11111111|x2
D|9999-9-1111-9999-11-99-9999-9999-12121212-11111111|
A|9999-7--9-9-9999--9-77-9999-7777-12121212--9-9-9-9|
E|7777--------7777-------7777------10101010---------|


in my opinion it must be played in this way


e|----------------------------------------------|
B|----------------------------------------------|
G|-----9-1111------11-99------9999------11111111|x2
D|9999-9-1111-9999-11-99-9999-9999-7777-11111111|
A|9999-7--9-9-9999--9-77-9999-7777-7777--9-9-9-9|
E|7777--------7777-------7777------5555---------|

0 reply
Dead Ringer 272 Jan 08, 2008 07:37 AM

LarXen90 got it right

guest
You may want to rate the tab now too:
select rating
Wanna post a correction for this tab? Suggest correction