Oops, an error
Loading. Please wait.

On City Streets bass

5,456 views 6 this week
1 commentread comment
1 2 3 4 5
1 last vote to show rating
add to favorites
×
Save as Personal and add changes to this tab that will be seen only by you. Learn more ›
×
You can save this tab as Personal to edit and correct it or add notes. All changes will be seen only by you. Learn more »
launch autoscroll
font size
0
reset
guitar tuner
edit
Autoscroll
slow
fast
+/-
esc
set tempo
stop
Author
Difficulty
I thought that if there was one song on this album that had a tab it would have been 
one. Its not perfect, it my first one Ive done, but theres nothing wrong with it I hope.

      Riff 1 (Intro, verse, and chorus)

D|-------------------------------------------------------------|
G|---------77-6-5---------55-4-3-------------------------------| x5
A|-5-555-5--------5-555-5--------5-555-5-22-3-4-5-555-555-555-5|
E|-------------------------------------------------------------|

Break for about 12 seconds

     Riff 1
D|-------------------------------------------------------------|
G|---------77-6-5---------55-4-3-------------------------------| x6
A|-5-555-5--------5-555-5--------5-555-5-22-3-4-5-555-555-555-5|
E|-------------------------------------------------------------|

D|-------------------------------------------------------------|
G|-------------------------------------------------------------|
A|-5-555-5-5-555-5---------------------------------------------|
E|-------------------------------------------------------------|

     Riff 1
D|-------------------------------------------------------------|
G|---------77-6-5---------55-4-3-------------------------------| x4
A|-5-555-5--------5-555-5--------5-555-5-22-3-4-5-555-555-555-5|
E|-------------------------------------------------------------|

D|-------------------------------------------------------------|
G|-------------------------------------------------------------|
A|-5-555-5-5-555-5---------------------------------------------|
E|-------------------------------------------------------------|

     Riff 2
D|-------------------------------------------------------------|
G|--777--------777----------------------------9876-------------|
A|-5---5-5555-5---5-5555-5-5555-5-5555-5-5555------------------|
E|-------------------------------------------------------------|

D|-------------------------------------------------------------|
G|--777--------777----------------------------06789876---------|
A|-5---5-5555-5---5-5555-5-5555-5-5555-5-5555------------------|
E|-------------------------------------------------------------|

    Bridge
D|-------------------------------------------------------------|
A|-7-7777-3-3333-5-5555-5-5555-7-7777-5-5555-3-3333-3-3333-----| X2
G|-------------------------------------------------------------|
E|-------------------------------------------------------------|

D|-------------------------------------------------------------|
G|---------------77-554-0~-------------------------------------|
A|-5-5555-5-5555-----------------------------------------------|
E|-------------------------------------------------------------|

D|-------------------------------------------------------------|
G|---------77-6-5---------55-4-3----------------06789876-------|
A|-5-555-5--------5-555-5--------5-555-5-22-3-4----------------|
E|-------------------------------------------------------------|

     Riff 1
D|-------------------------------------------------------------|
G|---------77-6-5---------55-4-3-------------------------------| x4
A|-5-555-5--------5-555-5--------5-555-5-22-3-4-5-555-555-555-5|
E|-------------------------------------------------------------|

D|-------------------------------------------------------------|
G|-------------------------------------------------------------|
A|-5-555-5-5-555-5---------------------------------------------|
E|-------------------------------------------------------------|

    Riff 2
D|-------------------------------------------------------------|
G|--777--------777----------------------------9876-------------|
A|-5---5-5555-5---5-5555-5-5555-5-5555-5-5555------------------|
E|-------------------------------------------------------------|

D|-------------------------------------------------------------|
G|--777--------777---------------------------0~----------------|
A|-5---5-5555-5---5-5555-5-5555-5-5555-5-5555------------------|
E|-------------------------------------------------------------|

Thats it!

Im pretty sure the Rick uses a pick but Im a finger bassist and it works either way.

            
            
Suggest correction
Creating personal tab
Creating personal tab
You can edit any tab online and save it as your Personal.

You can edit, replace or remove any tab part or add personal notes – all changes will be seen only by you.

Personal tabs can be accessed anytime from any device, even offline.
Learn more »
Give kudos to tab author, rate the tab!
1 2 3 4 5
comments
print report bad tab
1 comment total.
0 reply
behrmonster 10 Jan 13, 2017 11:52 PM

You should check the song this is all wrong

guest
You may want to rate the tab now too:
select rating
Wanna post a correction for this tab? Suggest correction