Oops, an error
Loading. Please wait.

Punk Rock Love Tab

version 6
version 6

Whole song

Interactive

22 views 1 this week
no commentswrite comment
1 2 3 4 5
3 more votes to show rating
add to favorites
launch autoscroll
font size
0
reset
how to read this tab
guitar tuner
Autoscroll
slow
fast
+/-
esc
set tempo
stop
Help us to improve Ultimate-Guitar.com Take our survey!
×
Author
Difficulty
novice
About this tab version
Specifics of this version. Play these tabs while listening to the song. You will see. Was this info helpful? Yes No
The Casualties - Punk Rock Love <3


140 Bpm
Play the powerchords like 1 2 3&4&


[Intro]

   [Guitar 1]

  e|--------------------------------------------------------------| 
  B|--------------------------------------------------------------| 
  G|--------------------------------------------------------------| 2x
  D|-----------------6--6-----6-----7s9--7-----7--9--11--9--7--6--| 
  A|----7-----7---4--------4-----5-----------7--------------------| 
  E|-5-----5------------------------------------------------------| 


[Intro 2]

   [Guitar 1]

  e|-5--5--4--0--4---5---7--5--0--4--7--5--4--5--|
  B|---------------------------------------------| 
  G|---------------------------------------------| 2x
  D|---------------------------------------------|
  A|---------------------------------------------| 
  E|---------------------------------------------| 

  e|-5p4-5--5p4-5--5p4-5--7-5-4-5--|
  B|-------------------------------| 
  G|-------------------------------| 2x   (let ring after second time)
  D|-------------------------------|
  A|-------------------------------| 
  E|-------------------------------| 

   
   [Guitar 2]  Play along

      A                  C#                F#                D
  e|------------------------------------------------------------------------|
  B|------------------------------------------------------------------------| 
  G|---------------------6---6---6---6-----11--11--11--11----7---7---7---7--| 
  D|--7---7---7---7------6---6---6---6-----11--11--11--11----7---7---7---7--|  4x
  A|--7---7---7---7------4---4---4---4-----9---9---9---9-----5---5---5---5--| 
  E|--5---5---5---5---------------------------------------------------------| 

[Intro End]





  [Guitar 1&2]

      A                  E                 C#                D
  e|------------------------------------------------------------------------|
  B|------------------------------------------------------------------------| 
  G|---------------------9---9---9---9-----6---6---6---6-----7---7---7---7--| 
  D|--7---7---7---7------9---9---9---9-----6---6---6---6-----7---7---7---7--|
  A|--7---7---7---7------7---7---7---7-----4---4---4---4-----5---5---5---5--| 
  E|--5---5---5---5---------------------------------------------------------| 
      Into    a   Scene  fullof  liesI     met youthereyou   seemed   allright

      A                  E                 C#                D
  e|------------------------------------------------------------------------|
  B|------------------------------------------------------------------------| 
  G|---------------------9---9---9---9-----6---6---6---6-----7---7---7---7--| 
  D|--7---7---7---7------9---9---9---9-----6---6---6---6-----7---7---7---7--|
  A|--7---7---7---7------7---7---7---7-----4---4---4---4-----5---5---5---5--| 
  E|--5---5---5---5---------------------------------------------------------| 
      Gave you love,     gave you a heart, all you gavewas   broken  heart
  





      A                  C#                F#                D
  e|------------------------------------------------------------------------|
  B|------------------------------------------------------------------------| 
  G|---------------------6---6---6---6-----11--11--11--11----7---7---7---7--| 
  D|--7---7---7---7------6---6---6---6-----11--11--11--11----7---7---7---7--|
  A|--7---7---7---7------4---4---4---4-----9---9---9---9-----5---5---5---5--| 
  E|--5---5---5---5---------------------------------------------------------| 
                         Broken  heart                       I want it back


      A                  C#                F#                D
  e|------------------------------------------------------------------------|
  B|------------------------------------------------------------------------| 
  G|---------------------6---6---6---6-----11--11--11--11----7---7---7---7--| 
  D|--7---7---7---7------6---6---6---6-----11--11--11--11----7---7---7---7--|
  A|--7---7---7---7------4---4---4---4-----9---9---9---9-----5---5---5---5--| 
  E|--5---5---5---5---------------------------------------------------------| 
                         Broken  heart                       I got  it back






      A                  E                 C#                D
  e|------------------------------------------------------------------------|
  B|------------------------------------------------------------------------| 
  G|---------------------9---9---9---9-----6---6---6---6-----7---7---7---7--|  2x
  D|--7---7---7---7------9---9---9---9-----6---6---6---6-----7---7---7---7--|
  A|--7---7---7---7------7---7---7---7-----4---4---4---4-----5---5---5---5--| 
  E|--5---5---5---5---------------------------------------------------------| 
      Oh  my  love,      Oh   my  dear,    what I gave you   was  so  dear






      A                  C#                F#                D
  e|------------------------------------------------------------------------|
  B|------------------------------------------------------------------------| 
  G|---------------------6---6---6---6-----11--11--11--11----7---7---7---7--| 
  D|--7---7---7---7------6---6---6---6-----11--11--11--11----7---7---7---7--|
  A|--7---7---7---7------4---4---4---4-----9---9---9---9-----5---5---5---5--| 
  E|--5---5---5---5---------------------------------------------------------| 
                         Loved you dear,                     just so, dear
   

      A                  C#                F#                D
  e|------------------------------------------------------------------------|
  B|------------------------------------------------------------------------| 
  G|---------------------6---6---6---6-----11--11--11--11----7---7---7---7--| 
  D|--7---7---7---7------6---6---6---6-----11--11--11--11----7---7---7---7--|
  A|--7---7---7---7------4---4---4---4-----9---9---9---9-----5---5---5---5--| 
  E|--5---5---5---5---------------------------------------------------------| 
                         Loved you dear,                     oh  so,  dear







      A                  C#                F#                D
  e|------------------------------------------------------------------------|
  B|------------------------------------------------------------------------| 
  G|---------------------6---6---6---6-----11--11--11--11----7-----7-----7--|
  D|--7---7---7---7------6---6---6---6-----11--11--11--11----7-----7-----7--|
  A|--7---7---7---7------4---4---4---4-----9---9---9---9-----5-----5-----5--| 
  E|--5---5---5---5---------------------------------------------------------| 
                                                             ^     ^     ^

      A                  C#                F#                D
  e|------------------------------------------------------------------------|
  B|------------------------------------------------------------------------| 
  G|---------------------6---6---6---6-----11--11--11--11----7---7---7---7--| 
  D|--7---7---7---7------6---6---6---6-----11--11--11--11----7---7---7---7--|
  A|--7---7---7---7------4---4---4---4-----9---9---9---9-----5---5---5---5--| 
  E|--5---5---5---5---------------------------------------------------------| 






      A                  E                 C#                D
  e|------------------------------------------------------------------------|
  B|------------------------------------------------------------------------| 
  G|---------------------9---9---9---9-----6---6---6---6-----7---7---7---7--|  2x
  D|--7---7---7---7------9---9---9---9-----6---6---6---6-----7---7---7---7--|
  A|--7---7---7---7------7---7---7---7-----4---4---4---4-----5---5---5---5--| 
  E|--5---5---5---5---------------------------------------------------------| 
      gave you love,     gave you a heart, all you gavewas   broken  heart






      A                  C#                F#                D
  e|------------------------------------------------------------------------|
  B|------------------------------------------------------------------------| 
  G|---------------------6---6---6---6-----11--11--11--11----7---7---7---7--| 
  D|--7---7---7---7------6---6---6---6-----11--11--11--11----7---7---7---7--|
  A|--7---7---7---7------4---4---4---4-----9---9---9---9-----5---5---5---5--| 
  E|--5---5---5---5---------------------------------------------------------| 
                         Broken  heart                       I want it back


      A                  C#                F#                D
  e|------------------------------------------------------------------------|
  B|------------------------------------------------------------------------| 
  G|---------------------6---6---6---6-----11--11--11--11----7---7---7---7--| 
  D|--7---7---7---7------6---6---6---6-----11--11--11--11----7---7---7---7--|
  A|--7---7---7---7------4---4---4---4-----9---9---9---9-----5---5---5---5--| 
  E|--5---5---5---5---------------------------------------------------------| 
                         Broken  heart                       I got  it back





[Solo]

  [Guitar 1]

  e|-5--5--4--0--4---5---7--5--0--4--7--5--4--5--|
  B|---------------------------------------------| 
  G|---------------------------------------------| 2x
  D|---------------------------------------------|
  A|---------------------------------------------| 
  E|---------------------------------------------| 


  [Guitar 2]
      A                  C#                F#                D
  e|------------------------------------------------------------------------|
  B|------------------------------------------------------------------------| 
  G|---------------------6---6---6---6-----11--11--11--11----7-----7-----7--|
  D|--7---7---7---7------6---6---6---6-----11--11--11--11----7-----7-----7--|
  A|--7---7---7---7------4---4---4---4-----9---9---9---9-----5-----5-----5--| 
  E|--5---5---5---5---------------------------------------------------------| 
                                                             ^     ^     ^

      A                  C#                F#                D
  e|------------------------------------------------------------------------|
  B|------------------------------------------------------------------------| 
  G|---------------------6---6---6---6-----11--11--11--11----7---7---7---7--| 
  D|--7---7---7---7------6---6---6---6-----11--11--11--11----7---7---7---7--|
  A|--7---7---7---7------4---4---4---4-----9---9---9---9-----5---5---5---5--| 
  E|--5---5---5---5---------------------------------------------------------| 

[Solo End]





      A                  E                 C#                D
  e|------------------------------------------------------------------------|
  B|------------------------------------------------------------------------| 
  G|---------------------9---9---9---9-----6---6---6---6-----7---7---7---7--|  2x
  D|--7---7---7---7------9---9---9---9-----6---6---6---6-----7---7---7---7--|
  A|--7---7---7---7------7---7---7---7-----4---4---4---4-----5---5---5---5--| 
  E|--5---5---5---5---------------------------------------------------------| 
      gave you love,     gave you a heart, all you gavewas   broken  heart





      A                  C#                F#                D
  e|------------------------------------------------------------------------|
  B|------------------------------------------------------------------------| 
  G|---------------------6---6---6---6-----11--11--11--11----7---7---7---7--| 
  D|--7---7---7---7------6---6---6---6-----11--11--11--11----7---7---7---7--|
  A|--7---7---7---7------4---4---4---4-----9---9---9---9-----5---5---5---5--| 
  E|--5---5---5---5---------------------------------------------------------| 
                         Broken  heart                       I want it back


      A                  C#                F#                D
  e|------------------------------------------------------------------------|
  B|------------------------------------------------------------------------| 
  G|---------------------6---6---6---6-----11--11--11--11----7---7---7---7--| 
  D|--7---7---7---7------6---6---6---6-----11--11--11--11----7---7---7---7--|
  A|--7---7---7---7------4---4---4---4-----9---9---9---9-----5---5---5---5--| 
  E|--5---5---5---5---------------------------------------------------------| 
                         Broken  heart                       I got  it back






      A                  C#                F#                D
  e|------------------------------------------------------------------------|
  B|------------------------------------------------------------------------| 
  G|---------------------6---6---6---6-----11--11--11--11----7-----7-----7--|
  D|--7---7---7---7------6---6---6---6-----11--11--11--11----7-----7-----7--|
  A|--7---7---7---7------4---4---4---4-----9---9---9---9-----5-----5-----5--| 
  E|--5---5---5---5---------------------------------------------------------| 
                                                             ^     ^     ^

      A                  C#                F#                D
  e|------------------------------------------------------------------------|
  B|------------------------------------------------------------------------| 
  G|---------------------6---6---6---6-----11--11--11--11----7---7---7---7--| 
  D|--7---7---7---7------6---6---6---6-----11--11--11--11----7---7---7---7--|
  A|--7---7---7---7------4---4---4---4-----9---9---9---9-----5---5---5---5--| 
  E|--5---5---5---5---------------------------------------------------------| 
                                                                   Punk Rock love!   Uhhrg


[Outro]

   Play after last Powerchord

  e|-4--5~--|
  B|--------| 
  G|--------| 2x
  D|--------|
  A|--------| 
  E|--------| 


[END]


Have fun!


Edit by Jan Gilles
Suggest correction
Give kudos to tab author, rate the tab!
1 2 3 4 5
comments
print report bad tab
guest
You may want to rate the tab now too:
select rating
Wanna post a correction for this tab? Suggest correction