Oops, an error
Loading. Please wait.

Punk Rock Tragedy Tab

version 1
version 1

Whole song

872 views 1 this week
1 commentread comment
1 2 3 4 5
x 6
add to favorites
×
Save as Personal and add changes to this tab that will be seen only by you. Learn more ›
×
You can save this tab as Personal to edit and correct it or add notes. All changes will be seen only by you. Learn more »
save as personal
new!
launch autoscroll
font size
0
reset
how to read this tab
guitar tuner
Autoscroll
slow
fast
+/-
esc
set tempo
stop
The Casualties
Punk Rock Tragedy
On the Front Line

Intro
E-10-10-10-10-10-10-10-10---------5-5-55-5-5-5---------------|
B-10-10-10-10--8--8--8--8 2x than-5-5-55-3-3-3---------------|
G------------------------------------------------------------|
D------------------------------------------------------------|
A------------------------------------------------------------|
E------------------------------------------------------------|
Pre-chorus
E------------------------------------------------------------|
B------------------------------------------------------------|
G-----7-7-9--------------------------------------------------|
D-9-9-7-7-9--------------------------------------------------|
A-9-9-5-5-7--------------------------------------------------|
E-7-7--------------------------------------------------------|
"Punk rock tradgety"
E------------------------------------------------------------|
B------------------------------------------------------------|
G-------11---------------------------------------------------|
D-9-9-9-11---------------------------------------------------|
A-9-9-9--9---------------------------------------------------|
E-7-7-7------------------------------------------------------|
"Oh-oh Woah"
E------------------------------------------------------------|
B------------------------------------------------------------|
G-------9-9-9------------------------------------------------|
D-11-11-9-9-9-9-9--------------------------------------------|
A-11-11-7-7-7-9-9--------------------------------------------|
E-9---9-------7-7--------------------------------------------|

Thats Pretty much it. Play the intro in some other parts too.

The casualties kick good charlotte ass!
Suggest correction
comments
print report bad tab
1 comment total.
0 reply
Astrozombies13 37 Mar 10, 2014 09:18 PM

E------------------------------------------------------------|
B------------------------------------------------------------|
G-14-14-14-14----12-12-12-12-12------------------------------|
D-12-12-12-12----12-12-12-12-12------------------------------|
A------------------------------------------------------------|
E------------------------------------------------------------|

 bro I'm pretty sure that's how the intro is played

guest
You may want to rate the tab now too:
select rating
Wanna post a correction for this tab? Suggest correction