Oops, an error
Loading. Please wait.

Rebeldes De Oi Tab

35 views 1 this week
no commentswrite comment
1 2 3 4 5
3 more votes to show rating
add to favorites
launch autoscroll
font size
0
reset
how to read this tab
guitar tuner
Autoscroll
slow
fast
+/-
esc
set tempo
stop
Help us to improve Ultimate-Guitar.com Take our survey!
×
INTRO:
E|---------------X3--|----------------|
B|-------------------|----------------|
G|-99999999-77777777-|-99999999-5-4-2-|
D|-99999999-77777777-|-99999999-5-4-2-|
A|-77777777-55555555-|-77777777-3-2-0-|
E|-------------------|----------------|

B5    G5           D5      G5-F#5-E5
Soy rebelde de las calles muy pobre
B5    G5       D5      G5-F#5-E5
soy rebelde lo ves en mi ropa
B5    G5         D5      G5-F#5-E5
soy rebelde tatuajes en mis brazos
B5    G5           D5      G5-F#5-E5
soy rebelde por las botas que llevo


E5           D5           C5-B5-A5
con la barra los domingos a cantar
E5           D5           C5-B5-A5
con presion y apoyo vamos a ganar


B5    G5     D5      G5-F#5-E5
Soy rebelde la manera que hablo
B5    G5    D5      G5-F#5-E5
Soy rebelde siempre peliando
B5    G5    D5      G5-F#5-E5
Soy rebelde siempre tomando
B5    G5    D5      G5-F#5-E5
Soy rebelde siempre cantando


E5           D5           C5-B5-A5
con la barra los domingos a cantar
E5           D5           C5-B5-A5
con presion y apoyo vamos a ganar

F#5                          D5
si eres de Argentina, Chile, Bolivia o Ecuador
E5                           B5
Paraguay o Venezuela, Uruguay o Mexico
F#5                         D5
España, Perú, Honduras, Colombia, Panamá
E5                     B5
Costa Rica, Nicaragua, El Salvador, Cuba

E|---------------------------|
B|---------------------------| X4
G|------12121212-----9-11-9--|
D|-9999-12121212--12-9-11-9--|
A|-9999-10101010--12-7-9--7--|
E|-7777-----------10---------|

B5        G5      D5-E5-F#5-E5
Si eres rebelde juntate a mi gente
B5        G5      D5-E5-F#5-E5
si eres rebelde en la linea del frente
B5        G5      D5-E5-F#5-E5
si eres rebelde grita conmigo
B5        G5      D5-E5-F#5-E5
si eres rebelde canta conmigo


E5           D5           C5-B5-A5
con la barra los domingos a cantar
E5           D5           C5-B5-A5
con presiÓn y apoyo vamos a ganar


F#5                          D5
si eres de Argentina, Chile, Bolivia o Ecuador
E5                           B5
Paraguay o Venezuela, Uruguay o Mexico
F#5                         D5
España, Perú, Honduras, Colombia, Panamá
E5                     B5
Costa Rica, Nicaragua, El Salvador, Cuba

(LAS PRIMERAS DOS LÍNEAS DEL BAJO LAS PUEDEN TOCAR CON PALM MUTE)
F#5                         D5
No lo olviden Puerto Rico, Dominicanos
E5                       B5
Guatemala y los latinos, todo el mundo
F#5                     D5
este disco canto es con todo el amor
E5                     B5
a los latinos que les gusta el punk!


F#5                          D5
si eres de Argentina, Chile, Bolivia o Ecuador
E5                           B5
Paraguay o Venezuela, Uruguay o Mexico
F#5                         D5
España, Perú, Honduras, Colombia, Panamá
E5                     B5
Costa Rica, Nicaragua, El Salvador, Cuba

E|----------------------------------|----------------------------------|
B|----------------------------------|----------------------------------|
G|-11-11-11------------9-9-9--------|-11-11-11------------9-9-9--------|
D|-11-11-11--12-12-12--9-9-9--9-9-9-|-11-11-11--12-12-12--9-9-9--9-9-9-|
A|-9--9--9---12-12-12--7-7-7--9-9-9-|-9--9--9---12-12-12--7-7-7--9-9-9-|
E|-----------10-10-10---------7-7-7-|-----------10-10-10---------7-7-7-|
                            Viva el punk!                   canta el punk!

ACORDES:
E|--X---X---X---X---X---X---X---|
B|--X---X---X---X---X---X---X---|
G|--9---X---X---X---12--X---11--|
D|--9---10--9---7---12--12--11--|
A|--7---10--9---7---10--12--9---|
E|--X---8---7---5---X---10--X---|
   E5 C5  B5  A5  G5  D5  F#5
Suggest correction
Give kudos to tab author, rate the tab!
1 2 3 4 5
comments
print report bad tab
guest
You may want to rate the tab now too:
select rating
Wanna post a correction for this tab? Suggest correction