Oops, an error
Loading. Please wait.

Under Attack bass

version 1
version 1

Whole song

Interactive

697 views 1 this week
3 commentsread comments
1 2 3 4 5
x 3
add to favorites
×
Save as Personal and add changes to this tab that will be seen only by you. Learn more ›
×
You can save this tab as Personal to edit and correct it or add notes. All changes will be seen only by you. Learn more »
launch autoscroll
font size
0
reset
guitar tuner
edit
Autoscroll
slow
fast
+/-
esc
set tempo
stop
Author
Casualties                     
"Under Attack"
Under Attack

     Intro
G|-------------------------------------|
D|-------------------------------------|
A|-------------------------------------|
E|-15\-5------3h5------3h5-----33333333|

  
G|-------------------|there are some fillins but this is basicly it.
D|-------------------|x8
A|------5-5-5-653-300|   
E|-5-5-5---------3---|  

     Fill
G|-------|
D|-------|
A|-75--3-|
E|------3|

     Verse
G|---------------------|
D|---------------------|x4
A|---------7777-5-7-5-3|
E|-55555555------------|  

     Chorus
G|------------------------------------|
D|------------------------------------|x2
A|-----------------------5-5-5-653-300|
E|-3333333333333333-5-5-5---------3---|

Verse
Chorus

G|-------------------|
D|-------------------|x1
A|------5-5-5-653-300|   
E|-5-5-5---------3---| 

     Bridge
G|-------------------------------------------------------------------|
D|-------------------------------------------------------------------|
A|-33-0-0-0-0-00000000-33-0-0-0-0-0~3-0~3-00000000-33-0-0-0-0-0~3-0~3|
E|-------------------------------------------------------------------|

G|--------------------------------|
D|--------------------------------|
A|-7-7-7-757-7-7-757-7-7-757-7-7-7|
E|--------------------------------|

Verse
Chorus

     Outro
G|-------|-----------|
D|-------|-----------|
A|-75--3-|-5-3---7-33|
E|------3|-----3-----|

There it is.I corrected it so its much better now.               

            
            
Suggest correction
Creating personal tab
Creating personal tab
You can edit any tab online and save it as your Personal.

You can edit, replace or remove any tab part or add personal notes – all changes will be seen only by you.

Personal tabs can be accessed anytime from any device, even offline.
Learn more »
Give kudos to tab author, rate the tab!
1 2 3 4 5
comments
print report bad tab
3 comments total.
0 reply
Mr. Thingy 260 Aug 01, 2007 03:28 PM

This is WAY off....

0 reply
Mr. Thingy 260 Aug 09, 2007 03:40 AM

Much better now.

0 reply
Johnny X 10 Sep 16, 2007 07:02 PM

Damn good tab!
Seems near perfect to me, but I have a hard time hearing the bridge part

guest
You may want to rate the tab now too:
select rating
Wanna post a correction for this tab? Suggest correction