Oops, an error
Loading. Please wait.

Call Me Home Bass Tab

594 views 3 this week
no commentswrite comment
1 2 3 4 5
excellent!
x 1
add to favorites
launch autoscroll
font size
0
reset
guitar tuner
Tab Pro tools
  • play this tab
  • loop segment
  • change instrument
  • show fretboard
  • metronome
Autoscroll
slow
fast
+/-
esc
set tempo
stop
Contributor
-------------------------------------------------------------------------------
                         Cat empire - Call me home      
-------------------------------------------------------------------------------

Tabbed By : SpectralBanshee
e-mail: 

G|-------| |-----------------------------|     |-----------|
D|-------| |---5----------------5--------|     |-12-10-12\-|
A|-5-3-5-| |--------5-66--68--------3-55-| x2  |-----------|
E|-------| |-3---3-6---------33--3-6-----|     |-----------|

G|-------------------------------------------------------------|
D|-------------------------875-3----------------------875------|
A|-----3-3-----5-6--10865---------3-3-----5-6--10865-----------|
E|-1--5-5-3--66----------6-------5-5-3--66----------6----1/13--|


G|--10-757-| |-----------------------------|
D|---------| |---5----------------5--------|
A|-8-------| |--------5-66--68--------3-55-| x2
E|---------| |-3---3-6---------33--3-6-----|

G|-----------------------------------------|
D|-------10-----------------10-------------|
A|---12\---10---6810-10--10---10--3--------|
E|-10--------8-8-------10-------8--36-65-1-|

G|-----------------------------| |-----------|
D|---5----------------5--------| |-12-10-12\-|
A|--------5-66--68--------3-55-| |-----------|
E|-3---3-6---------33--3-6-----| |-----------|

G|-------------------------------------------------------------|
D|-------------------------875-3----------------------875------|
A|-----3-3-----5-6--10865---------3-3-----5-6--10865-----------|
E|-1--5-5-3--66----------6-------5-5-3--66----------6----1/13--|



G|--10--7-7-| |---------------|    |----------------|
D|----------| |---55-5--------|    |---55-5---------|
A|-8--------| |--5--5-6-6-8-8-| x7 |--5--5-6-6-8-8--|
E|----------| |-3------6---8--|    |-3------6---8-1-|

G|----------------------------------------|
D|-3---5-----------5-3---5-----------87-5-|
A|---------6-----------------56-----------|
E|-------------6------------------6-------|

G|-----------------------------------|    |-----------------------------------|
D|-3-1-3-3---5-5-5-------------------|    |-3-1-3-3---5-5-5------------8-87-5-|
A|--3---3-------5-6-5-6-----8----5-6-| x3 |--3---3-------5-6-5-6------8-------|
E|--------3-6------6---6-5-6--5-6----|    |--------3-6------6---6-5-6---------|

G|-10-757--| |-----------------------------|     |-757-|
D|---------| |---5------------5------------|     |-----|
A|---------| |--------5-66------------3-55-| x2  |-----|
E|---------| |-3---3-6------3-----3-6------|     |-----|

G|---------------------------------------------------|
D|---5-----------5---------------5-------------------|
A|--------5-66---------3-55-----------5-66-----------|
E|-3---3-6------3--3-6-------123---3-6-------1213\-3-|


| /  slide up
| \  slide down
| h  hammer-on
| p  pull-offç
| ~  vibrato
| +  harmonic
| x  Mute note
===============================================================================
comments
We did not receive enough feedback on this tab! Please rate:
print report bad tab
1 2 3 4 5
I want to post or [tab]
guest
You may want to rate the tab now too:
select rating
Please do not post tabs as comments. Select "correction" instead!