Oops, an error
Loading. Please wait.

Creature Chords

85 views 6 this week
no commentswrite comment
1 2 3 4 5
3 more votes to show rating
add to favorites
launch autoscroll
font size
0
reset
transpose
0
reset
display chords
guitar tuner
Autoscroll
slow
fast
+/-
esc
set tempo
stop
Help us to improve Ultimate-Guitar.com Take our survey!
×
Author
Difficulty
novice
About this tab version
Includes keyboard part tabbed out. Was this info helpful? Yes No
Scroll to bottom for tab imitating keyboard part


[VERSE]

F              Bb                      C
Wake up in the evening, stumble out of bed
                    F                          Dm
Get off the bus and God knows need to clear my head
               Bb                      C
Daylight into darkness, memories will fade
                F
Hear the cry of music, walk into the waves

F                    Bb                           C
No matter what high theatre, no matter what poor stage
                 F                     Dm
Hear you like an ocean in opposite of rage
                 Bb                     C
Know it's not a movie still we play the part
                     F
You're my heart that beats oh creature yes you are


[CHORUS]

F Bb                 C       Bb                 F
  Wide eyed here she comes, wide eyed here she comes
Bb                 C       Bb                 F
Wide eyed here she comes, wide eyed here she comes


[VERSE]

F                Bb                     C
Seen the golden islands, the way Rioli sparks
                 F                              Dm
The fire of Argentina, the stars that light the dark
                      Bb                     C
But none of them can move me near or near as far
                     F
You're my heart that beats oh creature yes you are


[CHORUS]

F Bb                 C       Bb                 F
  Wide eyed here she comes, wide eyed here she comes
Bb                 C       Bb                 F
Wide eyed here she comes, wide eyed here she comes


[VERSE]

F               Bb                           C
Walk around the gardens, walk the streets so strange
               F                             Dm
Wander til we find where the same is not the same
                 Bb                     C
Maybe there it finds you hiding like a spark
                     F
You're my heart that beats oh creature yes you are


[CHORUS]

F Bb                 C       Bb                 F
  Wide eyed here she comes, wide eyed here she comes
Bb                 C       Bb                 F
Wide eyed here she comes, wide eyed here she comes
Bb                 C       Bb                 F
Wide eyed here she comes, wide eyed here she comes
Bb                 C       Bb                 F
Wide eyed here she comes, wide eyed here she comes


[INTERLUDE]

F  Bb  F  Bb  F  Bb  F  Bb
F  Bb  C  Bb  F  Bb  C  Bb
F  Bb  C  Bb  F  Bb  C  Bb


[VERSE]

F               Bb                         C
If they hold a candle and it's no longer there
                     F                            Dm
If these thoughts of freedom have finally come to bear
                 Bb                       C
Somehow it won't matter if it's bright or dark
                     F
You're my heart that beats oh creature yes you are



[CHORUS]

F Bb                 C       Bb                 F
  Wide eyed here she comes, wide eyed here she comes
Bb                 C       Bb                 F
Wide eyed here she comes, wide eyed here she comes
Bb                 C       Bb                 F
Wide eyed here she comes, wide eyed here she comes
Bb                 C       Bb                 F
Wide eyed here she comes, wide eyed here she comes


[OUTRO]

F  Bb  C  Bb  F  Bb  C  Bb
F  Bb  C  Bb  F  Bb  C  Bb  F





Tab for keyboard part:


[VERSE]
   F               Bb              C               F
   1e+a2e+a3e+a4e+a1e+a2e+a3e+a4e+a1e+a2e+a3e+a4e+a1e+a2e+a3e+a4e+a
e|------------------------------------------------------------------|
B|------------------------------------------------------------------|
G|-2------2------2-3------3------3-0------0------0-2------2------2--|
D|------3------3--------3------3--------2------2--------3------3----|
A|----3------3--------5------5--------3------3--------3------3------|
E|------------------------------------------------------------------|
   Dm              Bb              C               F
   1e+a2e+a3e+a4e+a1e+a2e+a3e+a4e+a1e+a2e+a3e+a4e+a1e+a2e+a3e+a4e+a
e|------------------------------------------------------------------|
B|------------------------------------------------------------------|
G|-2------2------2-3------3------3-0------0------0-2------2------2--|
D|------3------3--------3------3--------2------2--------3------3----|
A|----5------5--------5------5--------3------3--------3------3------|
E|------------------------------------------------------------------|


[CHORUS]
   F      Bb       C      Bb       F      Bb       C      Bb
   1e+a2e+a3e+a4e+a1e+a2e+a3e+a4e+a1e+a2e+a3e+a4e+a1e+a2e+a3e+a4e+a
e|------------------------------------------------------------------|
B|-1------3------3-1------3------3-1------3------3-1------3------3--|
G|-2----2-3----3-3-0----0-3----3-3-2----2-3----3-3-0----0-3----3-3--|
D|----3-3----3-3------2-2----3-3------3-3----3-3------2-2----3-3----|
A|----3------5--------3------5--------3------5--------3------5------|
E|------------------------------------------------------------------|
Suggest correction
Give kudos to tab author, rate the tab!
1 2 3 4 5
comments
print report bad tab
guest
You may want to rate the tab now too:
select rating
Wanna post a correction for this tab? Suggest correction