Oops, an error
Loading. Please wait.

Crowd Tab

3,655 views 3 this week
2 commentsread comments
1 2 3 4 5
x 4
add to favorites
launch autoscroll
font size
0
reset
how to read this tab
guitar tuner
Autoscroll
slow
fast
+/-
esc
set tempo
stop
Help us to improve Ultimate-Guitar.com Take our survey!
×
Author
This beat just plays in the background of the whole song!
It is played fairly slowly

|------------------------------------------------------------------|
|-----------------------------------------6---------------6--------|
|---------4---------------4----------------------------------------|
|-------------------------------------7-------7-------7-------7----|
|-----5-------5-------5-------5---5---------------5----------------|
|-3---------------3------------------------------------------------|
Suggest correction
comments
print report bad tab
2 comments total.
0 reply
El_Duderino 149 Mar 17, 2007 06:38 PM

Yeah, but it's actually:

|-------------------------------------------------------------------|
|-----------------------------------------5h6---------------5h6-----|
|---------3h4--------------3h4--------------------------------------|
|--------------------------------------7-------7-------7-------7----|
|-----5-------5-------5--------5---5---------------5----------------|
|-3---------------3-------------------------------------------------|

;)

+1 reply
bigAlPhillips 108 Mar 22, 2012 02:49 AM

I don't hear any hammer-ons there, I think the original was fine.

guest
You may want to rate the tab now too:
select rating
Wanna post a correction for this tab? Suggest correction