Oops, an error
Loading. Please wait.

Fishies Bass Tab

10,901 views 12 this week
5 commentsread comments
1 2 3 4 5
x 6
add to favorites
launch autoscroll
font size
0
reset
guitar tuner
Autoscroll
slow
fast
+/-
esc
set tempo
stop
Help us to improve Ultimate-Guitar.com Take our survey!
×
Author
Difficulty
intermediate
FISHIES by CAT EMPIRE

This is about 95% of the song.  I decided to just keep this tab short and simple.  There 
a couple little details that I didn’t bother tabbing out because I figure if you can 
this, you can probably also hear what Ryan plays in the 5% that I didn’t tab out.


INTRO/MAIN RIFF/VERSE

  1 & 2 & 3 & 4 & |1 & 2 & 3 & 4 &
G|------3-5-5-----|----------------|
D|----------------|3-------5---5---|
A|3-------------6-|----------------|
E|----------------|--------------6-|

CHORUS

  1 & 2 & 3 & 4 & |1 & 2 & 3 & 4 &
G|----------------|----------------|
D|6-----6-6-----6-|6-----6---6---6-|
A|----------------|----------------|
E|----------------|----------------|
 Wow didi didi I just had to look


  1 & 2 & 3 & 4 & |1 & 2 & 3 & 4 &
G|----------------|----------------|
D|5-----5-5-----5-|5-----5---5-3-5-|
A|----------------|----------------|
E|----------------|----------------|
I said wow didi didi how those hips they shook

  1 & 2 & 3 & 4 & |1 & 2 & 3 & 4 &
G|----------------|----------------|
D|6-----6-6-----6-|8-----8-6-----6-|
A|----------------|----------------|
E|----------------|----------------|
Eye patch tongue ring little black hook

  1 & 2 & 3 & 4 & |1 & 2 & 3 & 4 &
G|----------------|------------------|
D|5--------------|-------------------|
A|----------------|------------------|
E|----------------|------------------|
Welcome fishies to my hook
Suggest correction
comments
print report bad tab
5 comments total. Showing first comments. show 1 bad comment
0 reply
corrda00 745 Nov 30, 2008 08:47 PM

Great 95% of a tab, i don't see how this is intermediate.

0 reply
eaglepoint 52 Jan 02, 2011 05:45 PM

Yeah, in hindsight, this isn't an intermediate tab. I'll correct that if I figure out how.

And that extra 5% is just Ryan playing that G on the D-string for a few measures. Anyone should be able to figure out that part.

guest
You may want to rate the tab now too:
select rating
Wanna post a correction for this tab? Suggest correction