Oops, an error
Loading. Please wait.

Miserere Tab

9,956 views 9 this week
no commentswrite comment
1 2 3 4 5
x 4
add to favorites
launch autoscroll
font size
0
reset
how to read this tab
guitar tuner
Autoscroll
slow
fast
+/-
esc
set tempo
stop
Help us to improve Ultimate-Guitar.com Take our survey!
×
Author
-------------------------------------------------------------------------------
                             Miserere - The Cat Empire
-------------------------------------------------------------------------------

Tuning: EADGBe


Intro:

e|------------------------------------------------------------------------|
B|-----------------6-8------6-8----------------6-8------6-8---------------|
G|-----------7-5-7-----5--7-----5--------7-5-7------5-7-----5-------------| 
D|---8--7-5-----------------------8--7-5----------------------------------|
A|------------------------------------------------------------------------|
E|------------------------------------------------------------------------|



Verse:

e|------------------------------------------------------------------------|
B|-----------------6-8------6-8----------------6-8------6-8---------------|
G|-----------7-5-7-----5--7-----5--------7-5-7------5-7-----5-------------|
D|---8--7-5-----------------------8--7-5----------------------------------| 2x
A|------------------------------------------------------------------------|
E|------------------------------------------------------------------------|

Do you ever look around?
Turn your ear to the ground, show your face to the sky
On a night when the skies echo sounds?
From inside of your mind
On a stage that you shone where the sun did become you and

Move with your thoughts through the signs and the scenes
Of the worlds you have seen and the sights that have been
Your reflection in shadows and dreams
Your reflection in shadows and dreams

Did you ever see a man,
Who did walk down the street, white robe with no shoes on his feet,
And on top of his head placed a box with two slits,
And a sign from his neck said “I do not exist”

Or a woman who could not remember her name,
Did stutter and stutter again and again,
And saw you and called you her son,
Her eyes said
“My being is gone, but still I’m not dead”



Refrain:

e|------------------------------------------------------------------------|
B|----------8-8-6--6-8---8-8-6--6-8---------------------------------------|
G|--------7------------7------------7--7-5-3--3---------------------------|
D|---5--8----------------------------------------3------------------------| 
A|------------------------------------------------------------------------|
E|------------------------------------------------------------------------|

Oh miserere, miserere, miserere, miserere, miserere



Bridge 1:

e|-----------8-10-11-10-8----8-------------------8-------------------8-8-10----15------|
B|---8-10-11--------------11---11-10-8-6-8-10-11---11-10-8-6-8-10-11--------11---------|
G|-------------------------------------------------------------------------------------|
D|-------------------------------------------------------------------------------------|
A|-------------------------------------------------------------------------------------|
E|-------------------------------------------------------------------------------------|
                                                                           
e|----------10-11-10-8----------8-10-11-10-8-------------------------------------------|
B|--8-10-11------------11-10-11--------------11-10-11-10-8---6-------------------------|
G|-------------------------------------------------------------------------------------|
D|-------------------------------------------------------------------------------------|
A|-------------------------------------------------------------------------------------|
E|-------------------------------------------------------------------------------------|



Verse:

e|------------------------------------------------------------------------|
B|-----------------6-8------6-8----------------6-8------6-8---------------|
G|-----------7-5-7-----5--7-----5--------7-5-7------5-7-----5-------------|
D|---8--7-5-----------------------8--7-5----------------------------------|
A|------------------------------------------------------------------------|
E|------------------------------------------------------------------------|
                                                                                   
e|------------------------------------------------------------------------|   
B|-----------------6-8------6-8------------------6-8-----6-8--------------|
G|-----------7-5-7-----5--7-----5--------------7-----5-7-----5------------|
D|---8--7-5-----------------------8---3---5-------------------------------|
A|------------------------------------------------------------------------|
E|------------------------------------------------------------------------|

Have you ever seen a sound?
Have you listened to an image?
Have you ever touched a thought?
Have you ever tasted nothing?
Have you ever told a lie that was true more than truth?
Because truth it had lied all its life
When it spoke to you and

What did it say, it is that, it is this, this goes here, here is there,
It is not, yes it is
It was dying, your senses, your eyes, they were numb
And forever my friends, been looking around

And the other replies with a wave of a hand,
I am already here in this promised land,
But not by a god,
And not by a king,
And not by a spirit, deep from within

I am here, because a miracle's a win, it’s a flash of glory it’s an empty tin,
Now maybe, might let you in, not to save you but to keep on looking and



Refrain:

e|------------------------------------------------------------------------|
B|----------8-8-6--6-8---8-8-6--6-8---------------------------------------|
G|--------7------------7------------7--7-5-3--3---------------------------|
D|---5--8----------------------------------------3------------------------| 
A|------------------------------------------------------------------------|
E|------------------------------------------------------------------------|

Oh miserere, miserere, miserere, miserere, miserere
Miserere, miserere
Oh miserere, miserere



Bridge 2:

e|--------------------------------------------------------------------------------------------|
B|-----8-----------10------------11---------16-15-13----------13----13----------13------------|
G|---7---7---7---7----7---7---10----10---10-15-12----10----10----10----10----10-----and-so-on-|
D|-5-------5---7--------7---8----------8----13-12-10----10----------10----10----10------------|
A|--------------------------------------------------------------------------------------------|
E|--------------------------------------------------------------------------------------------|

Have you ever been so happy that you’re sad,
That the lights turn to stars,
And the stars become eyes,
And hellos are goodbyes,
And the laughs are the sighs,
And the show disappears with a note
Until next time

Long live living, if living can be this
Long live living, if living can be this
Long live living, if living can be this
Long live living, if living can be this

e|---|
B|---|
G|---|  <--- bridge 2 ends on an A
D|-7-|
A|---|
E|---|



Verse:

e|------------------------------------------------------------------------|
B|-----------------6-8------6-8----------------6-8------6-8---------------|
G|-----------7-5-7-----5--7-----5--------7-5-7------5-7-----5-------------|
D|---8--7-5-----------------------8--7-5----------------------------------|
A|------------------------------------------------------------------------|
E|------------------------------------------------------------------------|

Do you ever look around?
Turn your ear to the ground?
Show your face to the sky on a night when the skies echo sounds?
From inside of your mind,
On the stage that you shone when the sun did become you and

Move with your thoughts through the signs and the scenes
Of the worlds you have seen and the sights that have been
Your reflection in shadows and dreams

Do you ever look around and find what is yet to be found? 
Suggest correction
comments
print report bad tab
guest
You may want to rate the tab now too:
select rating
Wanna post a correction for this tab? Suggest correction