Oops, an error
Loading. Please wait.

One Four Five Bass Tab

version 1
version 1

Whole song

4,638 views 1 this week
no commentswrite comment
1 2 3 4 5
excellent!
x 6
add to favorites
launch autoscroll
font size
0
reset
guitar tuner
Tab Pro tools
  • play this tab
  • loop segment
  • change instrument
  • show fretboard
  • metronome
×
Best way to learn
"One Four Five"
Autoscroll
slow
fast
+/-
esc
set tempo
stop
Contributor
----------------------------------------------------------------------------
			     One Four Five - Cat Empire
----------------------------------------------------------------------------

Tabbed By : sticks and bones

comment if you reckon anything's wrong

  Verse
G|------------------------------------|     -----|
D|-----------5s-7-7-7-----------------| x5  -----|
A|-----5---5-----------------5s-7-7-7-|     -----|
E|---------------------5---5----------|     --5--|

G|------------------------------------|
D|-----------5s-7-7-7-----------------| x8
A|-----5---5-----------------5s-7-7-7-|
E|---------------------5---5----------|

  Chorus
      1,  4,  5     To make you high to make you high
G|-----------------|---------------------------------|
D|-----------------|---------------------------------|
A|--------5---7----|---------------------------------|
E|----5------------|---------------------------------|

                                      
G|-------------------------|    ------------|
D|-------------------------| x8 ------------|
A|---------5---7---7-------|    -----5---7--|
E|----5--5------------7s---|    -5----------|

Verse
G|------------------------------------|   
D|-----------5s-7-7-7-----------------| x3
A|-----5---5-----------------5s-7-7-7-|    
E|---------------------5---5----------|   

G|------------------------------------|
D|-----------5s-7-7-7-----------------| x8
A|-----5---5-----------------5s-7-7-7-|
E|---------------------5---5----------|
  
  Chorus
      1,  4,  5     To make you high to make you high
G|-----------------|---------------------------------|
D|-----------------|---------------------------------|
A|--------5---7----|---------------------------------|
E|----5------------|---------------------------------|

                                      Its times like these you need some 145
G|---------------------|    ------------|
D|---------------------| x8 ------------|
A|---------5---7-------|    -----5---7--|
E|----5--5--------7s-5-|    -5----------|

  Bridge
 
G|----------------|-----------------|----------------|------------------|
D|----------------|-----------------|----------------|------------------|
A|-5---1---0-0-4--|-5---1---0-0-4-0-|-5---1---0-0-4--|--5---1---0---4-0-|
E|----------------|-----------------|----------------|------------------|

G|----------------|-----------------|----------------|------------------|
D|----------------|-----------------|----------------|------------------|
A|-5---1---0-0-4--|-5---1---0-0-4-0-|-5---1---0-0-4--|--5---1---0-0-4-0-|
E|----------------|-----------------|----------------|------------------|

no bass in electronic bit until end: G|------------|
                                     D|------------|
                                     A|-0--0--0--0-|
                                     E|------------|
   Chorus
G|-----------------|---------------------------------|
D|-----------------|---------------------------------|
A|--------5---7----|---------------------------------|
E|----5------------|---------------------------------|

G|----------------------|     
D|----------------------| x8 
A|---------5---7--------|    
E|----5--5-------5-7s---|    

Its times like these you need some   One,      Four,     Five!!!!!!
----------------------------------|-----------------------------------|
----------------------------------|-----------------------------------|
----------------------------------|------------5---------7------------|
----------------------------------|---5-------------------------------|

hummmmmmmmmmmmmmmmmmmmm

| s  slide from into next note

============================================================================
comments
print report bad tab
I want to post or [tab]
guest
You may want to rate the tab now too:
select rating
Please do not post tabs as comments. Select "correction" instead!