Oops, an error
Loading. Please wait.

So Many Nights Tab

9,578 views 1 this week
no commentswrite comment
1 2 3 4 5
x 3
add to favorites
launch autoscroll
font size
0
reset
how to read this tab
guitar tuner
Autoscroll
slow
fast
+/-
esc
set tempo
stop
Help us to improve Ultimate-Guitar.com Take our survey!
×
Author
-------------------------------------------------------------------------------
			     SO MANY NIGHTS - The Cat Empire
-------------------------------------------------------------------------------
Tabbed by: Me


Tuning: Standard

Intro/Verse 1:

e|---------------------------------------------------------------------------|
B|-----4--------2-------0----------------------------------------------------|
G|-----4--------2-------1----------------------------------------------------|
D|-----4--------2-------2----------------------------------------------------|
A|--2------2-0-----0----2----------0-----------------------------------------|
E|-------------------0-------0--2--------------------------------------------|


   It Doesnt matter what I say, It doesnt matter what I do...
e|---------------------------------------------------------------------------|
B|-----4--------2-------0----------------------------------------------------|
G|-----4--------2-------1----------------------------------------------------|
D|-----4--------2-------2----------------------------------------------------|
A|--2------2-0-----0----2----------0-----------------------------------------|
E|-------------------0-------0--2--------------------------------------------|

	

Pre Chorus:

     When I see you, in the distance with your freinds
e|---3-----------------------------------------------------------------------|
B|---3-----------------------------------------------------------------------|
G|---4-----------------------------------------------------------------------|
D|---5-----------------------------------------------------------------------|
A|---5-----------------------------------------------------------------------|
E|---3------------------------------------------------------3----5-----------|

     I look around, and then I look down at my treads
e|---7-----------------------------------------------------------------------|
B|---7-----------------------------------------------------------------------|
G|---8-----------------------------------------------------------------------|
D|---9-----------------------------------------------------------------------|
A|---9-----------------------------------------------------------------------|
E|---7------------------------------------------------------7----8-----------|

     Its innapropriate that I should present like a,
e|---9-----------------------------------------------------------------------|
B|---9-----------------------------------------------------------------------|
G|---10----------------------------------------------------------------------|
D|---11----------------------------------------------------------------------|
A|---11----------------------------------------------------------------------|
E|---9-----------------------------------------------------------------------|

     Retired Matador with unpaid rent
e|---11----------------------------------------------------------------------|
B|---11----------------------------------------------------------------------|
G|---12----------------------------------------------------------------------|
D|---13----------------------------------------------------------------------|
A|---13----------------------------------------------------------------------|
E|---11----------------------------------------------------------------------|


Chorus:

   So Many Nights!..
e|-------------------5--5------------------------5--5--------------------------|
B|------------4------5--5-------9-----9----------5--5--------------------------|
G|------------4------6--6-------9-----9----------6--6-------------------------o|
D|------------4------7--7-------9-----9----------7--7-------------------------o|
A|---------2--2------7--7-------7-----7----------7--7--------------------------|
E|-------------------5--5------------------------5--5--------------------------|


Repeat Intro/Verse 1 for rest of verses.


| /  slide up
| \  slide down
| h  hammer-on
| p  pull-off
| ~  vibrato
| +  harmonic
| x  Mute note
===============================================================================
Suggest correction
Give kudos to tab author, rate the tab!
1 2 3 4 5
comments
print report bad tab
guest
You may want to rate the tab now too:
select rating
Wanna post a correction for this tab? Suggest correction