Oops, an error
Loading. Please wait.

The Rhythm Tab

6,505 views 3 this week
1 commentread comment
1 2 3 4 5
accurate
x 3
add to favorites
launch autoscroll
font size
0
reset
how to read this tab
guitar tuner
Autoscroll
slow
fast
+/-
esc
set tempo
stop
Help us to improve Ultimate-Guitar.com Take our survey!
×
Author
Standard Tuning

Lead Intro tabbed by Solced

Intro

e|--------------------------------------------------------------------------|
B|--------------------------------------------------------------------------|
G|------7-8-----------8----8p7p5h7----5-7-------------8-7-7h8---------------|
D|---5--------5-5-5h6-----------------------6-5---5-------------------------|
A|--------------------------------------------------------------------------|
E|--------------------------------------------------------------------------|

e|---------------------------------------------7-8-7---8-10-8-7-8-10-8-7-8-|
B|-----------------3-4-6--3h4p3---------------x----------------------------|
G|------7h8-8-----------------------5-3-----0------------------------------|
D|--5---------6------------------------------------------------------------|
A|-------------------------------------------------------------------------|
E|-------------------------------------------------------------------------|
         
e|--------------------------------------------------------------------------|
B|--8-8-8--8h9-----------------3--------------------------------------------|
G|----------------5-5-5-5p3--3----------------------------------------------|
D|--------------------------------------------------------------------------|
A|--------------------------------------------------------------------------|
E|--------------------------------------------------------------------------|


Verse 1

e|-----------------------------------------------------------------------------|
B|-----8-9-8-9-8h9p8---------------------8-9-8h9p8----------9-8----------------|
G|----x-----------------10-8-7---5-----------------10-8-7-8--------10-8-7-10-8-|
D|---x-------------------------------------------------------------------------|
A|-----------------------------------------------------------------------------|
E|-----------------------------------------------------------------------------|


e|-----------------------------------------------------------------------------|
B|----6-8-6--------------------------6-8-6-------8-9-8h9p8---------------------|
G|--8---------5----5-8-7-4-------8-8-----------------------8-7------7----------|
D|-------------------------------------------------------------9------10-9-----|
A|-----------------------------------------------------------------------------|
E|-----------------------------------------------------------------------------|


e|-------------------------------------------------|
B|--8-9-11-9-8------------------9-11p9-------8-----|
G|----------------8-10-8p7----8--------------------|
D|-------------------------9-----------------------|
A|-------------------------------------------------|
E|-------------------------------------------------|

Trumpet Solo


Chords and lyrics:

(Intro)
        D#
And for all of the sweet loving that
       G#
I have received

In the sun in the rain
                      A#
By the moon by the sea
There is one time that I'm thinking of
G
One time where one woman
                    D#
Did knock me off my feet
And my knees were shaking
                      G#
And my jaw was dropping
And my eyes were squinting
                     A#
And my smile was growing
And my pants were bulging
                   G
And my hands were sweating
And my chest was beating
          G#
So I cry 'excuse me,
                             A#
What is the secret to your song?'

(Verse 1)
      D#                       G#
Cause when you're walking along
A#                       G
When you're walking along:
D#                          G#
Your legs are a melody my hands
        A#
Would like to play
         G
And your hips are a note
That does take me away
D#                                    G#
And your face and your eyes and your hair
A#                            G
And your waist and your smile
                    D#
Drive me to distraction
   G#                         A#
She turned and she gave the evil eye
    G
'why thankyou' she said
         D#                       G#
Then she sigh 'ah there's one thing
A#                             G
I think you failed to mention:'
D#
'What?' I said then she said
G#
'It's the rhythm you forgot'
A#                      G
And right then I knew what was what
D#
And she snuck to my lips
G#
And she kissed them
A#
Said 'young man
G
I'll show you some rhythm'

(Trumpet Solo) D# - G# - A# - G

And she'll show you some rhythm

(Verse 2)

    Em
And since then ha
D                                  G
The rhythm's been running through my veins
                     C
In my thoughts in my eyes
                 Em
In my head it's insane
               D
It's the thing that does drive me
To scream
G 
On the street when I think of some
C
Places it's taken me
Em                D                                        G
I feel horny when I thinking of some of that rhythm in my mind
                       C
What she gave what she gives to me
           Em
All of the time
                    D
Say a little bit of sweet loving in your day
G
All my friends know it keeps the
C
Bad thoughts away
   Em                     D
So sing with your hips my baby
                            G         C
When you're dancing to this tune
        Em                   D
And when this tune is through
We'll sneak to some place
    G             C
And continue to:
D
Say sing with your hips my baby
When you're dancing to this tune
And when this tune is through
We'll sneak to some place and
Continue to -
She said I'll show you some rhythm
D# - G# - A# - G

And she'll show you some rhythm
D# - G# - A# - G
Suggest correction
Give kudos to tab author, rate the tab!
1 2 3 4 5
comments
print report bad tab
1 comment total.
0 reply
Solced 250 wrote on September 26 2008, 02:07 pm

nice. you´ve tabbed out the whole song. I´ll take a bit time and check it out.

guest
You may want to rate the tab now too:
select rating
Please do not post tabs as comments. Select "correction" instead!