Oops, an error
Loading. Please wait.

Wont Be Afraid Bass Tab

587 views 1 this week
no commentswrite comment
1 2 3 4 5
please rate
add to favorites
launch autoscroll
font size
0
reset
guitar tuner
Autoscroll
slow
fast
+/-
esc
set tempo
stop
Help us to improve Ultimate-Guitar.com Take our survey!
×
Author
Difficulty
advanced
-------------------------------------------------------------------------------
			     Won't Be Afraid - The Cat Empire
-------------------------------------------------------------------------------

Tabbed By : Milo Larkin
e-mail: milo.larkin@hotmail.co.uk

Tuning: Standard

This is all right, 2nd keyboard solo coming later.

Verse:

G|---------|-------------------|
D|---------|-------------------|
A|---------|---8---------------|
E|-6--8-8--|------1-1---x13\\\-|

Pre Chorus (hard to hear last bar because of the drums):

G|-------------------|-------------|
D|-------------------|-------------|
A|-------------------|--/8-6-5-----|
E|-6--8-8-(x7 times)-|---------8-6-|

Chorus

G|------------------|----------------|
D|------------8-10--|----------------|           3x
A|------------------|---6--8-8-------| 
E|-6--8-8-8---------|-----------1-1--|

x3

G|-----------------|--------15--------------------------|
D|-----------------|-----------x------------------------|
A|-8-8-xx-10-11-11-|-13-15-------13---------------------|
E|-----------------|----------------13-13-13~-15\-3-3~--|

Verse 2: Same as first one.

Chorus 2: Chorus

G|------------------|----------------|
D|------------8-10--|----------------|           3x
A|------------------|---6--8-8-------| 
E|-6--8-8-8---------|-----------1-1--|

x3

G|-----------------|--------15------------|--------------|---------------|--------|
D|-----------------|-----------x----------|--------------|---------------|-3-5-5--|
A|-8-8-xx-10-11-11-|-13-15-------13-------|--------------|---------------|--------|
E|-----------------|----------------13-13-|-13~-15\-3-3~-|-1-3-1-3-3-1-3-|--------|

G|---------------|---------------------|---------------|----------------------|        
D|----------8-10-|---------------------|----------8-10-|----------------------| 
A|---------------|-5-6-8-88\-----------|---------------|-5-6-8-----6-8-8\-----|
E|--6--8-8-------|------------1-1--1-1-|--6--8-8-------|-------6-8--------1-1-|

x2 but on the second time end on:

G|----------------|
D|----------------|
A|-10-xx10-10-x10-|
E|----------------|

G|----------------|--------------------|
D|----------------|--------------------|
A|--------------11|---/6xxxx-6-6-------|
E|-1-1--2-2--33---|--------------3-4-6-| 

x4 and on the fourth time end with:

G|----------------------------------|
D|----------------------------------|
A|-10-10--8-10-8-10-10--8-10-8-10---|
E|----------------------------------|

Then back to chorus/verse and repeat as necessary. There are lots of little 
nuances and improvisations but they're easy to make up.

Enjoy!



| /  slide up
| \  slide down
| h  hammer-on
| p  pull-off
| ~  vibrato
| +  harmonic
| x  Mute note
===============================================================================
Suggest correction
Give kudos to tab author, rate the tab!
1 2 3 4 5
comments
print report bad tab
guest
You may want to rate the tab now too:
select rating
Wanna post a correction for this tab? Suggest correction