Oops, an error
Loading. Please wait.

Distant Sures tab

version 1
version 1

Whole song

649 views 15 this week
1 commentread comment
1 2 3 4 5
x 3
add to favorites
×
Save as Personal and add changes to this tab that will be seen only by you. Learn more ›
×
You can save this tab as Personal to edit and correct it or add notes. All changes will be seen only by you. Learn more »
launch autoscroll
font size
0
reset
how to read this tab
guitar tuner
edit
Autoscroll
slow
fast
+/-
esc
set tempo
stop
Author
The Cave Singers - Distant Sures

Chords - B D#
Playing this with a capo on 1 makes switching between the chords a lot easier.

Verse
e|1---------1-----3---------------1---------1-----------1---------|
B|3-----3----(3)--3-4-----3-4-----3-----3-----3-----3-----3-------|
G|3---3-----------3---------------3---3-----------3---------------|
D|3---------------5---------------3-------------------------------|
A|----------------------------------------------------------------|
E|----------------------------------------------------------------|

                                                  oh airborne
eyes                                  yeah        will see black
storms                                            if the summer is
gone                                              let it slide by
...                                               so let’s take to-
night                                 oh          my little one 
...                                               if the captain is
right                                             then we shall be
gone                              (Bridge)


Bridge
e|1---------1---------------------|
B|3-----3---------4-3---0---------|
G|3---3---------------------3-----|
D|3-------------------------------|
A|--------------------------------|
E|--------------------------------|


Chorus
e|1---------1-----3---------------1---------1---------------------|
B|3-----3-----3---3-4-----3-4-----3-----3---------4-3---0---------|
G|3---3-----------3---------------3---3---------------------3-----|
D|3---------------5---------------3-------------------------------|
A|----------------------------------------------------------------|
E|----------------------------------------------------------------|

lost in the rhythm cause the rhythm is wild
lost in the rhythm cause the prison is sad                     i’m
gonna need to reach her like the foot of the world       where the
earth will end and the wild subside               until she’s gone


Verse:
Oh hey, to be alive
Mmm, still need these bones
See the summer is yawning
Yeah, the crowd's gone in droves

So let's take tonight
Ooh dark little one
A strong stove in the past
Will keep our kettles warm

Bridge:

Chorus:
Lost in the rhythm cause the rhythm is wild
Lost in the rhythm cause the prison is wide
Gonna need to reach her like the foot of the world
Where her heart begins and the wild subside
Until it's gone

Verse:
Until it's gone
Until she's gone
(And on and on)
Suggest correction
Creating personal tab
Creating personal tab
You can edit any tab online and save it as your Personal.

You can edit, replace or remove any tab part or add personal notes – all changes will be seen only by you.

Personal tabs can be accessed anytime from any device, even offline.
Learn more »
Give kudos to tab author, rate the tab!
1 2 3 4 5
comments
print report bad tab
1 comment total.
0 reply
veciii 31 May 22, 2016 03:07 PM

Check this out: https://www.youtube.com/watch?v=Wk-NqSId6Ow

Capo on third fret. Open G, open C open D would be the easiest way to do it. Second guitar is barring 3 steps up for some of it.

Thanks for this. I've been wanting to learn this song for a long time. This helped.

guest
You may want to rate the tab now too:
select rating
Wanna post a correction for this tab? Suggest correction