Oops, an error
Loading. Please wait.

Distant Sures Live tab

version 2
version 2

Whole song

181 views 3 this week
no commentswrite comment
1 2 3 4 5
1 last vote to show rating
add to favorites
×
Save as Personal and add changes to this tab that will be seen only by you. Learn more ›
×
You can save this tab as Personal to edit and correct it or add notes. All changes will be seen only by you. Learn more »
launch autoscroll
font size
0
reset
how to read this tab
guitar tuner
edit
Autoscroll
slow
fast
+/-
esc
set tempo
stop
About this tab version
Live version of the song. Was this info helpful? Yes No
Song is the live version from KEXP radio station https://www.youtube.com/watch?v=Wk-NqSId6Ow
Only tabbing the major themes from the intro and verses

Tuning: standard
Capo: 3rd fret

All chord names and frets will be referenced from the 3rd fret

The acoustic guitar

[Intro]

[Guitar 1 --- Acoustic]
the acoustic plays two bars on its own

           G                  C                   D                     D
e|-----------------------------------------------------------------------------------|
B|---3--------3---------1---------1-----------3---------3--------3---------3---------|
G|--------4-------4----------0--------0------------2--------2---------2--------2-----|
D|------5-------5----------2--------2------------4--------4---------4--------4-------|  x2
A|---5------5-----------3-------3-------------5-------5----------5-------5-----------|
E|-----------------------------------------------------------------------------------|

The acoustic guitar repeats this pattern throughout the verses


[Verse]

[Guitar 2 --- Electric]

           G                   C                 D                      D
e|--------------------------------0--------------------------------------------------|
B|---3--------3---------1---------------------/3---------3--------3--------3---------|
G|--------0-------0----------0--------0-------------0--------0---------0-------0-----|
D|------0-------0----------2--------2-------------4--------4---------4-------4-------|  
A|---------2-----------3-------3--------------/5-------5----------5------5-----------|
E|---3-------------------------------------------------------------------------------|

           G                   C                 D                      D
e|--------------------------------0--------------------------------------------------|
B|---3--------3---------1---------------------0---------0---------3---------1p0------|
G|--------0-------0----------0--------0-------------2--------2---------2-------------|
D|------0-------0----------2--------2------------0--------0----------0---------------|  
A|---------2-----------3-------3--------------0-------0-----------0---------0--------|
E|---3-------------------------------------------------------------------------------|



There are some variations that Guitar 2 plays at the end of the second bar. Ive tabbed a few of them in above
but its not everything. Im not 100% sure that last D chord on the second bar for guitar 2 is right, but I 
think it is close.
 
 
************************************

| p  Pull-off
| /  Slide up

************************************
Suggest correction
Creating personal tab
Creating personal tab
You can edit any tab online and save it as your Personal.

You can edit, replace or remove any tab part or add personal notes – all changes will be seen only by you.

Personal tabs can be accessed anytime from any device, even offline.
Learn more »
Give kudos to tab author, rate the tab!
1 2 3 4 5
comments
print report bad tab
guest
You may want to rate the tab now too:
select rating
Wanna post a correction for this tab? Suggest correction